  0
SECTION
  2
HEADER
  9
$ACADVER
  1
AC1009
  9
$INSBASE
 10
0.0
 20
0.0
 30
0.0
  9
$EXTMIN
 10
15.8751075215114898
 20
20.3247825439527183
 30
-0.0000000000112498
  9
$EXTMAX
 10
296.1253516426373267
 20
212.1605517092039008
 30
0.0000000000002956
  9
$LIMMIN
 10
0.0
 20
0.0
  9
$LIMMAX
 10
297.0
 20
210.0
  9
$ORTHOMODE
 70
     1
  9
$REGENMODE
 70
     1
  9
$FILLMODE
 70
     1
  9
$QTEXTMODE
 70
     0
  9
$MIRRTEXT
 70
     1
  9
$DRAGMODE
 70
     2
  9
$LTSCALE
 40
1.0
  9
$OSMODE
 70
  4095
  9
$ATTMODE
 70
     1
  9
$TEXTSIZE
 40
2.5
  9
$TRACEWID
 40
1.0
  9
$TEXTSTYLE
  7
STANDARD
  9
$CLAYER
  8
寸法
  9
$CELTYPE
  6
BYLAYER
  9
$CECOLOR
 62
   256
  9
$DIMSCALE
 40
1.0
  9
$DIMASZ
 40
1.0
  9
$DIMEXO
 40
2.0
  9
$DIMDLI
 40
8.0
  9
$DIMRND
 40
0.0
  9
$DIMDLE
 40
0.0
  9
$DIMEXE
 40
0.0
  9
$DIMTP
 40
0.0
  9
$DIMTM
 40
0.0
  9
$DIMTXT
 40
3.0
  9
$DIMCEN
 40
2.5
  9
$DIMTSZ
 40
0.0
  9
$DIMTOL
 70
     0
  9
$DIMLIM
 70
     0
  9
$DIMTIH
 70
     0
  9
$DIMTOH
 70
     0
  9
$DIMSE1
 70
     0
  9
$DIMSE2
 70
     0
  9
$DIMTAD
 70
     4
  9
$DIMZIN
 70
     8
  9
$DIMBLK
  1
DOTSMALL
  9
$DIMASO
 70
     1
  9
$DIMSHO
 70
     1
  9
$DIMPOST
  1

  9
$DIMAPOST
  1

  9
$DIMALT
 70
     0
  9
$DIMALTD
 70
     3
  9
$DIMALTF
 40
0.03937007874016
  9
$DIMLFAC
 40
1.0
  9
$DIMTOFL
 70
     1
  9
$DIMTVP
 40
0.0
  9
$DIMTIX
 70
     0
  9
$DIMSOXD
 70
     0
  9
$DIMSAH
 70
     0
  9
$DIMBLK1
  1

  9
$DIMBLK2
  1

  9
$DIMSTYLE
  2
STANDARD
  9
$DIMCLRD
 70
   256
  9
$DIMCLRE
 70
   256
  9
$DIMCLRT
 70
   256
  9
$DIMTFAC
 40
1.0
  9
$DIMGAP
 40
0.625
  9
$LUNITS
 70
     2
  9
$LUPREC
 70
     2
  9
$SKETCHINC
 40
1.0
  9
$FILLETRAD
 40
0.0
  9
$AUNITS
 70
     0
  9
$AUPREC
 70
     1
  9
$MENU
  1
.
  9
$ELEVATION
 40
0.0
  9
$PELEVATION
 40
0.0
  9
$THICKNESS
 40
0.0
  9
$LIMCHECK
 70
     0
  9
$BLIPMODE
 70
     0
  9
$CHAMFERA
 40
10.0
  9
$CHAMFERB
 40
10.0
  9
$SKPOLY
 70
     0
  9
$TDCREATE
 40
2452318.6191435190849006
  9
$TDUPDATE
 40
2460476.7027777777984738
  9
$TDINDWG
 40
5.9513941551
  9
$TDUSRTIMER
 40
5.9513940394000002
  9
$USRTIMER
 70
     1
  9
$ANGBASE
 50
0.0
  9
$ANGDIR
 70
     0
  9
$PDMODE
 70
     3
  9
$PDSIZE
 40
0.0
  9
$PLINEWID
 40
0.0
  9
$COORDS
 70
     1
  9
$SPLFRAME
 70
     0
  9
$SPLINETYPE
 70
     6
  9
$SPLINESEGS
 70
     8
  9
$ATTDIA
 70
     1
  9
$ATTREQ
 70
     1
  9
$HANDLING
 70
     1
  9
$HANDSEED
  5
26C86
  9
$SURFTAB1
 70
     6
  9
$SURFTAB2
 70
     6
  9
$SURFTYPE
 70
     6
  9
$SURFU
 70
     6
  9
$SURFV
 70
     6
  9
$UCSNAME
  2

  9
$UCSORG
 10
0.0
 20
0.0
 30
0.0
  9
$UCSXDIR
 10
1.0
 20
0.0
 30
0.0
  9
$UCSYDIR
 10
0.0
 20
1.0
 30
0.0
  9
$PUCSNAME
  2

  9
$PUCSORG
 10
0.0
 20
0.0
 30
0.0
  9
$PUCSXDIR
 10
1.0
 20
0.0
 30
0.0
  9
$PUCSYDIR
 10
0.0
 20
1.0
 30
0.0
  9
$USERI1
 70
     0
  9
$USERI2
 70
     0
  9
$USERI3
 70
     0
  9
$USERI4
 70
     0
  9
$USERI5
 70
     0
  9
$USERR1
 40
0.0
  9
$USERR2
 40
0.0
  9
$USERR3
 40
0.0
  9
$USERR4
 40
0.0
  9
$USERR5
 40
0.0
  9
$WORLDVIEW
 70
     1
  9
$SHADEDGE
 70
     3
  9
$SHADEDIF
 70
    70
  9
$TILEMODE
 70
     1
  9
$MAXACTVP
 70
    64
  9
$PLIMCHECK
 70
     0
  9
$PEXTMIN
 10
29.07030212879177
 20
20.3707995653152416
 30
0.0
  9
$PEXTMAX
 10
261.6327191591262817
 20
183.3371960878370999
 30
0.0
  9
$PLIMMIN
 10
-3.17498779296875
 20
-3.1749999523162828
  9
$PLIMMAX
 10
293.878021240234375
 20
206.8829987049103067
  9
$UNITMODE
 70
     0
  9
$VISRETAIN
 70
     1
  9
$PLINEGEN
 70
     0
  9
$PSLTSCALE
 70
     1
  0
ENDSEC
  0
SECTION
  2
TABLES
  0
TABLE
  2
VPORT
 70
     1
  0
VPORT
  2
*ACTIVE
 70
     0
 10
0.0
 20
0.0
 11
1.0
 21
1.0
 12
206.7358789100987053
 22
105.4153153473344986
 13
0.0
 23
0.0
 14
10.0
 24
10.0
 15
10.0
 25
10.0
 16
0.0
 26
0.0
 36
1.0
 17
0.0
 27
0.0
 37
0.0
 40
494.5725465889506154
 41
2.01231527093596
 42
50.0
 43
0.0
 44
0.0
 50
0.0
 51
0.0
 71
     0
 72
  1000
 73
     1
 74
     3
 75
     0
 76
     0
 77
     0
 78
     0
  0
ENDTAB
  0
TABLE
  2
LTYPE
 70
     2
  0
LTYPE
  2
CONTINUOUS
 70
     0
  3
Solid line
 72
    65
 73
     0
 40
0.0
  0
LTYPE
  2
PHANTOMX2
 70
     0
  3
Phantom (2x) ____________    ____    ____   _
 72
    65
 73
     6
 40
127.0
 49
63.5
 49
-12.6999999999999993
 49
12.6999999999999993
 49
-12.6999999999999993
 49
12.6999999999999993
 49
-12.6999999999999993
  0
ENDTAB
  0
TABLE
  2
LAYER
 70
    24
  0
LAYER
  2
0
 70
     0
 62
     7
  6
CONTINUOUS
  0
LAYER
  2
図面枠
 70
     0
 62
     7
  6
CONTINUOUS
  0
LAYER
  2
テキスト
 70
     0
 62
     3
  6
CONTINUOUS
  0
LAYER
  2
DEFPOINTS
 70
     0
 62
     7
  6
PHANTOMX2
  0
LAYER
  2
枠ライン
 70
     0
 62
     1
  6
CONTINUOUS
  0
LAYER
  2
枠文字
 70
     0
 62
     4
  6
CONTINUOUS
  0
LAYER
  2
注釈
 70
     0
 62
     2
  6
CONTINUOUS
  0
LAYER
  2
枠横ライン
 70
     0
 62
     9
  6
CONTINUOUS
  0
LAYER
  2
寸法
 70
     0
 62
     2
  6
CONTINUOUS
  0
LAYER
  2
シンボル
 70
     0
 62
     3
  6
CONTINUOUS
  0
LAYER
  2
表題欄
 70
     0
 62
     4
  6
CONTINUOUS
  0
LAYER
  2
PL2
 70
     0
 62
     2
  6
CONTINUOUS
  0
LAYER
  2
PL1
 70
     0
 62
     7
  6
CONTINUOUS
  0
LAYER
  2
ビス
 70
     0
 62
     5
  6
CONTINUOUS
  0
LAYER
  2
図面枠2
 70
     0
 62
   251
  6
CONTINUOUS
  0
LAYER
  2
PL3
 70
     0
 62
     3
  6
CONTINUOUS
  0
LAYER
  2
PL6
 70
     0
 62
     1
  6
CONTINUOUS
  0
LAYER
  2
PL9
 70
     0
 62
    30
  6
CONTINUOUS
  0
LAYER
  2
壁
 70
     0
 62
     6
  6
CONTINUOUS
  0
LAYER
  2
本体1
 70
     0
 62
     7
  6
CONTINUOUS
  0
LAYER
  2
本体2
 70
     0
 62
    11
  6
CONTINUOUS
  0
LAYER
  2
PL4
 70
     0
 62
    40
  6
CONTINUOUS
  0
LAYER
  2
LAYER_1
 70
     0
 62
     7
  6
CONTINUOUS
  0
LAYER
  2
ビス類
 70
     0
 62
     3
  6
CONTINUOUS
  0
ENDTAB
  0
TABLE
  2
STYLE
 70
     3
  0
STYLE
  2
STANDARD
 70
     0
 40
0.0
 41
1.0
 50
0.0
 71
     0
 42
2.5
  3
txt.shx
  4
extfont.shx
  0
STYLE
  2
游明朝
 70
     0
 40
0.0
 41
1.0
 50
0.0
 71
     0
 42
2.5
  3
txt
  4

  0
STYLE
  2
角ゴ
 70
     0
 40
0.0
 41
1.0
 50
0.0
 71
     0
 42
2.5
  3
txt.shx
  4
extfont.shx
  0
ENDTAB
  0
TABLE
  2
VIEW
 70
     0
  0
ENDTAB
  0
TABLE
  2
UCS
 70
     0
  0
ENDTAB
  0
TABLE
  2
APPID
 70
    24
  0
APPID
  2
ACAD
 70
     0
  0
APPID
  2
ACAD_PSEXT
 70
     0
  0
APPID
  2
ACAD_DSTYLE_DIMJOGGED_JOGA
 70
     0
  0
APPID
  2
ACAD_MLEADERVER
 70
     0
  0
APPID
  2
ACAD_DSTYLE_DIMJAG
 70
     0
  0
APPID
  2
ACAD_DSTYLE_DIMBREAK
 70
     0
  0
APPID
  2
ACAD_DSTYLE_DIMTALN
 70
     0
  0
APPID
  2
ACAD_EXEMPT_FROM_CAD_STANDARDS
 70
     0
  0
APPID
  2
ACAD_DSTYLE_DIM_LINETYPE
 70
     0
  0
APPID
  2
ACAD_DSTYLE_DIM_EXT1_LINETYPE
 70
     0
  0
APPID
  2
ACAD_DSTYLE_DIM_EXT2_LINETYPE
 70
     0
  0
APPID
  2
ACAECLAYERSTANDARD
 70
     0
  0
APPID
  2
ACADANNOTATIVE
 70
     0
  0
APPID
  2
ACAD_DSTYLE_DIMRADIAL_EXTENSION
 70
     0
  0
APPID
  2
ACAD_DSTYLE_DIMTEXT_FILL
 70
     0
  0
APPID
  2
ACAD_DSTYLE_DIMEXT_LENGTH
 70
     0
  0
APPID
  2
ACAD_DSTYLE_DIMEXT_ENABLED
 70
     0
  0
APPID
  2
ACAD_DSTYLE_DIMARC_LENGTH_
 70
     0
  0
APPID
  2
ACAD_NAV_VCDISPLAY
 70
     0
  0
APPID
  2
GENIUS_GENODEF_13
 70
     0
  0
APPID
  2
GENIUS_GENOBJ-N-FIL_13
 70
     0
  0
APPID
  2
ACCMTRANSPARENCY
 70
     0
  0
APPID
  2
ACADANNOMONITORALERTICONDI
 70
     0
  0
APPID
  2
ACAD_TC
 70
     0
  0
ENDTAB
  0
TABLE
  2
DIMSTYLE
 70
     2
  0
DIMSTYLE
  2
STANDARD
 70
     0
  3

  4

  5
DOTSMALL
  6

  7

 40
1.0
 41
1.0
 42
2.0
 43
8.0
 44
0.0
 45
0.0
 46
0.0
 47
0.0
 48
0.0
140
3.0
141
2.5
142
0.0
143
0.03937007874016
144
1.0
145
0.0
146
1.0
147
0.625
 71
     0
 72
     0
 73
     0
 74
     0
 75
     0
 76
     0
 77
     4
 78
     8
170
     0
171
     3
172
     1
173
     0
174
     0
175
     0
176
   256
177
   256
178
   256
  0
DIMSTYLE
  2
STANDARD$0
 70
     0
  3

  4

  5

  6
DOT
  7
DOT
 40
1.0
 41
0.4
 42
2.0
 43
3.75
 44
0.0
 45
0.0
 46
0.0
 47
0.0
 48
0.0
140
2.399999999999999
141
2.5
142
0.0
143
0.03937
144
1.0
145
0.0
146
1.0
147
0.625
 71
     0
 72
     0
 73
     0
 74
     0
 75
     0
 76
     0
 77
     2
 78
     0
170
     0
171
     2
172
     0
173
     1
174
     0
175
     0
176
     2
177
     2
178
     2
  0
ENDTAB
  0
ENDSEC
  0
SECTION
  2
BLOCKS
  0
BLOCK
  8
0
  2
$MODEL_SPACE
 70
     0
 10
0.0
 20
0.0
 30
0.0
  3
$MODEL_SPACE
  1

  0
ENDBLK
  5
21
  8
0
  0
BLOCK
 67
     1
  8
0
  2
$PAPER_SPACE
 70
     0
 10
0.0
 20
0.0
 30
0.0
  3
$PAPER_SPACE
  1

  0
ENDBLK
  5
204
 67
     1
  8
0
  0
BLOCK
  8
0
  2
_OPEN
 70
     0
 10
0.0
 20
0.0
 30
0.0
  3
_OPEN
  1

  0
LINE
  5
5A2
  8
0
  6
BYBLOCK
 62
     0
 10
-1.0
 20
0.1666666666666666
 30
0.0
 11
0.0
 21
0.0
 31
0.0
  0
LINE
  5
5A3
  8
0
  6
BYBLOCK
 62
     0
 10
-1.0
 20
-0.1666666666666666
 30
0.0
 11
0.0
 21
0.0
 31
0.0
  0
LINE
  5
5A4
  8
0
  6
BYBLOCK
 62
     0
 10
0.0
 20
0.0
 30
0.0
 11
-1.0
 21
0.0
 31
0.0
  0
ENDBLK
  5
5A6
  8
0
  0
BLOCK
  8
0
  2
_DOT
 70
     0
 10
0.0
 20
0.0
 30
0.0
  3
_DOT
  1

  0
POLYLINE
  5
36BA
  8
0
  6
BYBLOCK
 62
     0
 66
     1
 10
0.0
 20
0.0
 30
0.0
 70
     1
 40
0.5
 41
0.5
  0
VERTEX
  5
26AC5
  8
0
  6
BYBLOCK
 62
     0
 10
-0.25
 20
0.0
 30
0.0
 42
1.0
  0
VERTEX
  5
26AC6
  8
0
  6
BYBLOCK
 62
     0
 10
0.25
 20
0.0
 30
0.0
 42
1.0
  0
SEQEND
  5
26AC7
  8
0
  6
BYBLOCK
 62
     0
  0
LINE
  5
36BB
  8
0
  6
BYBLOCK
 62
     0
 10
-0.5
 20
0.0
 30
0.0
 11
-1.0
 21
0.0
 31
0.0
  0
ENDBLK
  5
36BD
  8
0
  0
BLOCK
  8
0
  2
_DOTSMALL
 70
     0
 10
0.0
 20
0.0
 30
0.0
  3
_DOTSMALL
  1

  0
POLYLINE
  5
2262B
  8
0
  6
BYBLOCK
 62
     0
 66
     1
 10
0.0
 20
0.0
 30
0.0
 70
     1
 40
0.5
 41
0.5
  0
VERTEX
  5
26AE4
  8
0
  6
BYBLOCK
 62
     0
 10
-0.0625
 20
0.0
 30
0.0
 42
1.0
  0
VERTEX
  5
26AE5
  8
0
  6
BYBLOCK
 62
     0
 10
0.0625
 20
0.0
 30
0.0
 42
1.0
  0
SEQEND
  5
26AE6
  8
0
  6
BYBLOCK
 62
     0
  0
ENDBLK
  5
2262D
  8
0
  0
BLOCK
  8
0
  2
A$C2A1B03D1
 70
     0
 10
0.0
 20
0.0
 30
0.0
  3
A$C2A1B03D1
  1

  0
LINE
  5
22A24
  8
本体2
 10
0.0
 20
0.0
 30
0.0
 11
0.0
 21
7.5
 31
0.0
  0
LINE
  5
22A25
  8
本体2
 10
-0.5999999999999659
 20
0.5999999999999659
 30
0.0
 11
-0.5999999999999091
 21
6.9000000000000039
 31
0.0
  0
LINE
  5
22A26
  8
本体2
 10
-0.5999999999999659
 20
0.5999999999999659
 30
0.0
 11
-3.0399999999999059
 21
0.5999999999999659
 31
0.0
  0
ARC
  5
22A27
  8
本体2
 10
-3.0399999999999059
 20
0.5399999999999637
 30
0.0
 40
0.06
 50
90.0
 51
180.0000000000048885
  0
LINE
  5
22A28
  8
本体2
 10
0.0
 20
0.0
 30
0.0
 11
-2.099999999999965
 21
0.0
 31
0.0
  0
LINE
  5
22A29
  8
本体2
 10
-3.0999999999999082
 20
0.5399999999999637
 30
0.0
 11
-3.0999999999999082
 21
0.0
 31
0.0
  0
ARC
  5
22A2A
  8
本体2
 10
-2.5999999999999091
 20
0.0
 30
0.0
 40
0.4999999999999433
 50
180.0000000000057128
 51
0.0
  0
LINE
  5
22A2B
  8
本体2
 10
0.0
 20
7.5
 30
0.0
 11
-1.233974596215432
 21
7.5
 31
0.0
  0
LINE
  5
22A2C
  8
本体2
 10
-0.5999999999999091
 20
6.9000000000000039
 30
0.0
 11
-1.6399999999999291
 21
6.9000000000000039
 31
0.0
  0
ARC
  5
22A2D
  8
本体2
 10
-1.6399999999999291
 20
6.9600000000000071
 30
0.0
 40
0.06
 50
180.0
 51
270.0
  0
LINE
  5
22A2E
  8
本体2
 10
-1.69999999999993
 20
6.9600000000000071
 30
0.0
 11
-1.6999999999998729
 21
7.000000000000056
 31
0.0
  0
ARC
  5
22A2F
  8
本体2
 10
-2.0999999999998509
 20
7.0000000000000133
 30
0.0
 40
0.4
 50
0.0
 51
180.0
  0
ARC
  5
22A30
  8
本体2
 10
-2.0999999999998509
 20
7.0000000000000133
 30
0.0
 40
1.0
 50
30.0000000000012506
 51
180.0
  0
LINE
  5
22A31
  8
本体2
 10
-2.499999999999829
 20
7.0000000000000133
 30
0.0
 11
-2.499999999999885
 21
6.4000000000000039
 31
0.0
  0
LINE
  5
22A32
  8
本体2
 10
-3.0999999999999082
 20
7.0000000000000133
 30
0.0
 11
-3.0999999999999082
 21
6.4000000000000039
 31
0.0
  0
ARC
  5
22A33
  8
本体2
 10
-2.7999999999998959
 20
6.4550000000001111
 30
0.0
 40
0.3050000000000304
 50
190.3888578154883078
 51
349.6111421845117206
  0
ENDBLK
  5
22A34
  8
0
  0
BLOCK
  8
0
  2
A$C4A617CED
 70
     0
 10
0.0
 20
0.0
 30
0.0
  3
A$C4A617CED
  1

  0
LINE
  5
22BE1
  8
ビス類
  6
CONTINUOUS
 62
     3
 10
0.9042630175509316
 20
7.7956497501606909
 30
0.0
 11
1.8671592281284559
 21
4.9655544321773828
 31
0.0
  0
LINE
  5
22BE2
  8
ビス類
  6
CONTINUOUS
 62
     3
 10
0.9042630175508747
 20
8.3394848295602628
 30
0.0
 11
2.0521907123352321
 21
4.9655544321773828
 31
0.0
  0
LINE
  5
22BE3
  8
ビス類
  6
CONTINUOUS
 62
     3
 10
0.9042630175509316
 20
9.2956497501606936
 30
0.0
 11
1.8671592281284559
 21
6.4655544321773828
 31
0.0
  0
LINE
  5
22BE4
  8
ビス類
  6
CONTINUOUS
 62
     3
 10
1.1249793749999519
 20
9.1907665949705688
 30
0.0
 11
2.0521907123352321
 21
6.4655544321773828
 31
0.0
  0
ARC
  5
22BE5
  8
ビス類
  6
CONTINUOUS
 62
     3
 10
1.358711591947211
 20
0.5800070736869998
 30
0.0
 40
1.7407710509528029
 50
269.7129073154002867
 51
340.5375047996116109
  0
LINE
  5
22BE6
  8
ビス類
  6
CONTINUOUS
 62
     3
 10
0.0
 20
0.0
 30
0.0
 11
2.1776225963762941
 21
0.0
 31
0.0
  0
LINE
  5
22BE7
  8
ビス類
  6
CONTINUOUS
 62
     3
 10
-3.0000146250000621
 20
0.0
 30
0.0
 11
3.0000146250000039
 21
0.0
 31
0.0
  0
LINE
  5
22BE8
  8
ビス類
  6
CONTINUOUS
 62
     3
 10
-0.75
 20
1.4999999999999429
 30
0.0
 11
0.75
 21
1.75
 31
0.0
  0
LINE
  5
22BE9
  8
ビス類
  6
CONTINUOUS
 62
     3
 10
0.75
 20
2.89999500000016
 30
0.0
 11
0.75
 21
0.0
 31
0.0
  0
LINE
  5
22BEA
  8
ビス類
  6
CONTINUOUS
 62
     3
 10
-0.75
 20
2.89999500000016
 30
0.0
 11
-0.75
 21
0.0
 31
0.0
  0
LINE
  5
22BEB
  8
ビス類
  6
CONTINUOUS
 62
     3
 10
1.3499891249999789
 20
-1.1607421243325571
 30
0.0
 11
-1.3499921249999709
 21
-1.1607421243325571
 31
0.0
  0
ARC
  5
22BEC
  8
ビス類
  6
CONTINUOUS
 62
     3
 10
-1.3197804204722841
 20
0.6353486811821086
 30
0.0
 40
1.796344880234549
 50
200.7131604557025071
 51
269.0363293842240751
  0
ARC
  5
22BED
  8
ビス類
  6
CONTINUOUS
 62
     3
 10
0.7500003750000133
 20
-0.7857346243325197
 30
0.0
 40
0.374999925
 50
180.0
 51
270.0
  0
ARC
  5
22BEE
  8
ビス類
  6
CONTINUOUS
 62
     3
 10
-0.7499996249999868
 20
-0.7857346243325197
 30
0.0
 40
0.374999925
 50
270.0
 51
0.0
  0
LINE
  5
22BEF
  8
ビス類
  6
CONTINUOUS
 62
     3
 10
-0.3749996999999894
 20
-0.7857346243325197
 30
0.0
 11
0.3750004500000159
 21
-0.7857346243325197
 31
0.0
  0
LINE
  5
22BF0
  8
ビス類
  6
CONTINUOUS
 62
     3
 10
-0.75
 20
0.0
 30
0.0
 11
0.75
 21
0.25
 31
0.0
  0
LINE
  5
22BF1
  8
ビス類
  6
CONTINUOUS
 62
     3
 10
-0.75
 20
0.2499999999999432
 30
0.0
 11
0.75
 21
0.5
 31
0.0
  0
LINE
  5
22BF2
  8
ビス類
  6
CONTINUOUS
 62
     3
 10
-0.75
 20
0.4999999999999433
 30
0.0
 11
0.75
 21
0.75
 31
0.0
  0
LINE
  5
22BF3
  8
ビス類
  6
CONTINUOUS
 62
     3
 10
-0.75
 20
0.7499999999999432
 30
0.0
 11
0.75
 21
1.0
 31
0.0
  0
LINE
  5
22BF4
  8
ビス類
  6
CONTINUOUS
 62
     3
 10
-0.75
 20
0.999999999999943
 30
0.0
 11
0.75
 21
1.25
 31
0.0
  0
LINE
  5
22BF5
  8
ビス類
  6
CONTINUOUS
 62
     3
 10
-0.75
 20
1.249999999999942
 30
0.0
 11
0.75
 21
1.5
 31
0.0
  0
LINE
  5
22BF6
  8
ビス類
  6
CONTINUOUS
 62
     3
 10
0.9042630175509316
 20
9.2956497501606936
 30
0.0
 11
0.9042630175508747
 21
8.3394848295602628
 31
0.0
  0
LINE
  5
22BF7
  8
ビス類
  6
CONTINUOUS
 62
     3
 10
-0.9042630175509883
 20
9.2956497501606936
 30
0.0
 11
-0.9042630175509316
 21
8.3394848295603161
 31
0.0
  0
LINE
  5
22BF8
  8
ビス類
  6
CONTINUOUS
 62
     3
 10
-0.4881249991523191
 20
9.3175078496242936
 30
0.0
 11
0.2145256626359924
 21
7.5951765204557642
 31
0.0
  0
LINE
  5
22BF9
  8
ビス類
  6
CONTINUOUS
 62
     3
 10
-0.3631833222509613
 20
9.3053296521151765
 30
0.0
 11
0.3371628707037644
 21
7.5886470173621774
 31
0.0
  0
LINE
  5
22BFA
  8
ビス類
  6
CONTINUOUS
 62
     3
 10
-0.3631833222509613
 20
9.3053296521151765
 30
0.0
 11
0.3371628707037644
 21
7.5886470173621774
 31
0.0
  0
LINE
  5
22BFB
  8
ビス類
  6
CONTINUOUS
 62
     3
 10
-0.9042630175509883
 20
9.2956497501606936
 30
0.0
 11
-1.8671592281284559
 21
6.4655544321773828
 31
0.0
  0
LINE
  5
22BFC
  8
ビス類
  6
CONTINUOUS
 62
     3
 10
-1.124979375000065
 20
9.1907665949705688
 30
0.0
 11
-2.0521907123352321
 21
6.4655544321773828
 31
0.0
  0
LINE
  5
22BFD
  8
ビス類
  6
CONTINUOUS
 62
     3
 10
-1.124979375000065
 20
5.4655544321773828
 30
0.0
 11
-1.124979375000065
 21
2.89999500000016
 31
0.0
  0
LINE
  5
22BFE
  8
ビス類
  6
CONTINUOUS
 62
     3
 10
-0.9042630175509883
 20
7.7956497501606909
 30
0.0
 11
-1.8671592281284559
 21
4.9655544321773828
 31
0.0
  0
LINE
  5
22BFF
  8
ビス類
  6
CONTINUOUS
 62
     3
 10
-0.9042630175509316
 20
8.3394848295602628
 30
0.0
 11
-2.0521907123352321
 21
4.9655544321773828
 31
0.0
  0
LINE
  5
22C00
  8
ビス類
  6
CONTINUOUS
 62
     3
 10
-0.0394415918066216
 20
6.8888980843683481
 30
0.0
 11
-0.0394415918066216
 21
5.1741175731484068
 31
0.0
  0
LINE
  5
22C01
  8
ビス類
  6
CONTINUOUS
 62
     3
 10
-0.1499968461649814
 20
6.9178764298369506
 30
0.0
 11
-0.1499968461649814
 21
5.1741175731484068
 31
0.0
  0
LINE
  5
22C02
  8
ビス類
  6
CONTINUOUS
 62
     3
 10
1.1249793749999519
 20
5.4655544321773828
 30
0.0
 11
1.1249793749999519
 21
2.89999500000016
 31
0.0
  0
LINE
  5
22C03
  8
ビス類
  6
CONTINUOUS
 62
     3
 10
-1.124979375000065
 20
4.5340877939856341
 30
0.0
 11
-1.5007887585778681
 21
2.89999500000016
 31
0.0
  0
LINE
  5
22C04
  8
ビス類
  6
CONTINUOUS
 62
     3
 10
-2.0521907123352321
 20
4.9655544321773828
 30
0.0
 11
-1.8671592281284559
 21
4.9655544321773828
 31
0.0
  0
LINE
  5
22C05
  8
ビス類
  6
CONTINUOUS
 62
     3
 10
-0.0394415918066216
 20
5.1741175731484068
 30
0.0
 11
-0.1499968461649814
 21
5.1741175731484068
 31
0.0
  0
LINE
  5
22C06
  8
ビス類
  6
CONTINUOUS
 62
     3
 10
-0.75
 20
1.7499999999999429
 30
0.0
 11
0.75
 21
2.0
 31
0.0
  0
LINE
  5
22C07
  8
ビス類
  6
CONTINUOUS
 62
     3
 10
-0.75
 20
1.9999999999999429
 30
0.0
 11
0.75
 21
2.25
 31
0.0
  0
LINE
  5
22C08
  8
ビス類
  6
CONTINUOUS
 62
     3
 10
-0.75
 20
2.2499999999999432
 30
0.0
 11
0.75
 21
2.5
 31
0.0
  0
LINE
  5
22C09
  8
ビス類
  6
CONTINUOUS
 62
     3
 10
-0.75
 20
2.4999999999999432
 30
0.0
 11
0.75
 21
2.75
 31
0.0
  0
LINE
  5
22C0A
  8
ビス類
  6
CONTINUOUS
 62
     3
 10
-0.75
 20
2.4999999999999432
 30
0.0
 11
0.75
 21
2.75
 31
0.0
  0
LINE
  5
22C0B
  8
ビス類
  6
CONTINUOUS
 62
     3
 10
-0.75
 20
2.7499999999999432
 30
0.0
 11
0.1499700000010193
 21
2.89999500000016
 31
0.0
  0
LINE
  5
22C0C
  8
ビス類
  6
CONTINUOUS
 62
     3
 10
1.1249793749999519
 20
4.5340877939856341
 30
0.0
 11
1.5007887585778681
 21
2.89999500000016
 31
0.0
  0
LINE
  5
22C0D
  8
ビス類
  6
CONTINUOUS
 62
     3
 10
-0.9042630175508747
 20
5.4655544321773828
 30
0.0
 11
-1.124979375000065
 21
5.4655544321773828
 31
0.0
  0
LINE
  5
22C0E
  8
ビス類
  6
CONTINUOUS
 62
     3
 10
-2.0521907123352321
 20
6.4655544321773828
 30
0.0
 11
-1.8671592281284559
 21
6.4655544321773828
 31
0.0
  0
LINE
  5
22C0F
  8
ビス類
  6
CONTINUOUS
 62
     3
 10
0.9042630175507612
 20
5.4655544321773828
 30
0.0
 11
1.1249793749999519
 21
5.4655544321773828
 31
0.0
  0
LINE
  5
22C10
  8
ビス類
  6
CONTINUOUS
 62
     3
 10
0.2145256626359924
 20
7.5951765204557642
 30
0.0
 11
-0.1499968461649814
 21
6.9178764298369506
 31
0.0
  0
LINE
  5
22C11
  8
ビス類
  6
CONTINUOUS
 62
     3
 10
0.3371628707037644
 20
7.5886470173621774
 30
0.0
 11
-0.0394415918066216
 21
6.8888980843683481
 31
0.0
  0
LINE
  5
22C12
  8
ビス類
  6
CONTINUOUS
 62
     3
 10
-0.9042630175508747
 20
7.7956497501608624
 30
0.0
 11
-0.9042630175508747
 21
5.4655544321773828
 31
0.0
  0
LINE
  5
22C13
  8
ビス類
  6
CONTINUOUS
 62
     3
 10
0.9042630175508747
 20
7.7956497501608037
 30
0.0
 11
0.9042630175507612
 21
5.4655544321773828
 31
0.0
  0
LINE
  5
22C14
  8
ビス類
  6
CONTINUOUS
 62
     3
 10
-1.124979375000065
 20
9.1907665949705688
 30
0.0
 11
-1.1249846250000239
 21
13.7319703239435302
 31
0.0
  0
LINE
  5
22C15
  8
ビス類
  6
CONTINUOUS
 62
     3
 10
1.1249793749999519
 20
9.1907665949705688
 30
0.0
 11
1.1249793749999519
 21
13.7319703239435302
 31
0.0
  0
LINE
  5
22C16
  8
ビス類
  6
CONTINUOUS
 62
     3
 10
0.0552750021792008
 20
14.6478268543646593
 30
0.0
 11
0.0552750021792008
 21
12.2459280865757005
 31
0.0
  0
LINE
  5
22C17
  8
ビス類
  6
CONTINUOUS
 62
     3
 10
-0.0552802521791591
 20
14.6478268543646593
 30
0.0
 11
-0.0552802521791591
 21
12.2285971388733401
 31
0.0
  0
LINE
  5
22C18
  8
ビス類
  6
CONTINUOUS
 62
     3
 10
0.0552750021792008
 20
12.2459280865757005
 30
0.0
 11
0.5122497926015513
 21
10.6366348687780601
 31
0.0
  0
LINE
  5
22C19
  8
ビス類
  6
CONTINUOUS
 62
     3
 10
-0.0552802521791591
 20
12.2285971388733401
 30
0.0
 11
0.39150345470415
 21
10.6551930816268001
 31
0.0
  0
LINE
  5
22C1A
  8
ビス類
  6
CONTINUOUS
 62
     3
 10
0.5122497926015513
 20
10.6366348687780601
 30
0.0
 11
-0.3631833222509613
 21
9.3053296521151765
 31
0.0
  0
LINE
  5
22C1B
  8
ビス類
  6
CONTINUOUS
 62
     3
 10
0.39150345470415
 20
10.6551930816268001
 30
0.0
 11
-0.4881249991523191
 21
9.3175078496242936
 31
0.0
  0
LINE
  5
22C1C
  8
ビス類
  6
CONTINUOUS
 62
     3
 10
-0.2211131337166989
 20
14.6478268543646593
 30
0.0
 11
-1.1249846250000239
 21
13.7319703239435302
 31
0.0
  0
LINE
  5
22C1D
  8
ビス類
  6
CONTINUOUS
 62
     3
 10
0.2211078837167406
 20
14.6478268543646593
 30
0.0
 11
1.1249793749999519
 21
13.7319703239435302
 31
0.0
  0
LINE
  5
22C1E
  8
ビス類
  6
CONTINUOUS
 62
     3
 10
0.2211078837167406
 20
14.6478268543646593
 30
0.0
 11
-0.2211131337166989
 21
14.6478268543646593
 31
0.0
  0
LINE
  5
22C1F
  8
ビス類
  6
CONTINUOUS
 62
     3
 10
2.0521907123352321
 20
4.9655544321773828
 30
0.0
 11
1.8671592281284559
 21
4.9655544321773828
 31
0.0
  0
LINE
  5
22C20
  8
ビス類
  6
CONTINUOUS
 62
     3
 10
2.0521907123352321
 20
6.4655544321773828
 30
0.0
 11
1.8671592281284559
 21
6.4655544321773828
 31
0.0
  0
ENDBLK
  5
22C21
  8
0
  0
BLOCK
  8
0
  2
*D6
 70
     1
 10
0.0
 20
0.0
 30
0.0
  3
*D6
  1

  0
LINE
  5
2628E
  8
寸法
 62
     2
 10
52.7705582604604615
 20
42.2053175809596084
 30
0.0
 11
52.7705582604604615
 21
38.9144008217728512
 31
0.0
  0
LINE
  5
2628F
  8
寸法
 62
     2
 10
52.0705582604604089
 20
42.2053175809596084
 30
0.0
 11
52.0705582604604089
 21
38.9144008217728512
 31
0.0
  0
LINE
  5
26290
  8
寸法
 62
     2
 10
53.1705582604604601
 20
38.9144008217728512
 30
0.0
 11
53.5705582604604587
 21
38.9144008217728512
 31
0.0
  0
LINE
  5
26291
  8
寸法
 62
     2
 10
51.6705582604604103
 20
38.9144008217728512
 30
0.0
 11
48.4205582604604103
 21
38.9144008217728512
 31
0.0
  0
INSERT
  5
26292
  8
寸法
 62
     2
  2
_DOT
 10
52.7705582604604615
 20
38.9144008217728512
 30
0.0
 41
0.4
 42
0.4
 43
0.4
 50
180.0
  0
INSERT
  5
26293
  8
寸法
 62
     2
  2
_DOT
 10
52.0705582604604089
 20
38.9144008217728512
 30
0.0
 41
0.4
 42
0.4
 43
0.4
  0
INSERT
  5
26294
  8
寸法
  2
*U50
 10
0.0
 20
0.0
 30
0.0
  0
POINT
  5
26295
  8
DEFPOINTS
 62
     0
 10
52.7705582604604615
 20
44.2053175809596013
 30
0.0
  0
POINT
  5
26296
  8
DEFPOINTS
 62
     0
 10
52.0705582604604089
 20
44.2053175809596013
 30
0.0
  0
POINT
  5
26297
  8
DEFPOINTS
 62
     0
 10
52.0705582604604089
 20
38.9144008217728512
 30
0.0
  0
ENDBLK
  5
24AC7
  8
0
  0
BLOCK
  8
0
  2
*D7
 70
     1
 10
0.0
 20
0.0
 30
0.0
  3
*D7
  1

  0
LINE
  5
26298
  8
寸法
 62
     2
 10
52.7705582604604615
 20
42.2053175809596084
 30
0.0
 11
52.7705582604604615
 21
38.9144008217728512
 31
0.0
  0
LINE
  5
26299
  8
寸法
 62
     2
 10
96.7705582604604615
 20
42.2053175809596084
 30
0.0
 11
96.7705582604604615
 21
38.9144008217728512
 31
0.0
  0
LINE
  5
2629A
  8
寸法
 62
     2
 10
53.1705582604604601
 20
38.9144008217728512
 30
0.0
 11
96.3705582604604558
 21
38.9144008217728512
 31
0.0
  0
INSERT
  5
2629B
  8
寸法
 62
     2
  2
_DOT
 10
52.7705582604604615
 20
38.9144008217728512
 30
0.0
 41
0.4
 42
0.4
 43
0.4
 50
180.0
  0
INSERT
  5
2629C
  8
寸法
 62
     2
  2
_DOT
 10
96.7705582604604615
 20
38.9144008217728512
 30
0.0
 41
0.4
 42
0.4
 43
0.4
  0
INSERT
  5
2629D
  8
寸法
  2
*U51
 10
0.0
 20
0.0
 30
0.0
  0
POINT
  5
2629E
  8
DEFPOINTS
 62
     0
 10
52.7705582604604615
 20
44.2053175809596013
 30
0.0
  0
POINT
  5
2629F
  8
DEFPOINTS
 62
     0
 10
96.7705582604604615
 20
44.2053175809596013
 30
0.0
  0
POINT
  5
262A0
  8
DEFPOINTS
 62
     0
 10
96.7705582604604615
 20
38.9144008217728512
 30
0.0
  0
ENDBLK
  5
24AD4
  8
0
  0
BLOCK
  8
0
  2
*D8
 70
     1
 10
0.0
 20
0.0
 30
0.0
  3
*D8
  1

  0
LINE
  5
262A1
  8
寸法
 62
     2
 10
96.7705582604604615
 20
42.2053175809596084
 30
0.0
 11
96.7705582604604615
 21
38.9144008217728512
 31
0.0
  0
LINE
  5
262A2
  8
寸法
 62
     2
 10
97.470558260460507
 20
42.2053175809596084
 30
0.0
 11
97.470558260460507
 21
38.9144008217728512
 31
0.0
  0
LINE
  5
262A3
  8
寸法
 62
     2
 10
96.3705582604604558
 20
38.9144008217728512
 30
0.0
 11
95.9705582604604643
 21
38.9144008217728512
 31
0.0
  0
LINE
  5
262A4
  8
寸法
 62
     2
 10
97.8705582604605127
 20
38.9144008217728512
 30
0.0
 11
101.1205582604604984
 21
38.9144008217728512
 31
0.0
  0
INSERT
  5
262A5
  8
寸法
 62
     2
  2
_DOT
 10
96.7705582604604615
 20
38.9144008217728512
 30
0.0
 41
0.4
 42
0.4
 43
0.4
  0
INSERT
  5
262A6
  8
寸法
 62
     2
  2
_DOT
 10
97.470558260460507
 20
38.9144008217728512
 30
0.0
 41
0.4
 42
0.4
 43
0.4
 50
180.0
  0
INSERT
  5
262A7
  8
寸法
  2
*U52
 10
0.0
 20
0.0
 30
0.0
  0
POINT
  5
262A8
  8
DEFPOINTS
 62
     0
 10
96.7705582604604615
 20
44.2053175809596013
 30
0.0
  0
POINT
  5
262A9
  8
DEFPOINTS
 62
     0
 10
97.470558260460507
 20
44.2053175809596013
 30
0.0
  0
POINT
  5
262AA
  8
DEFPOINTS
 62
     0
 10
97.470558260460507
 20
38.9144008217728512
 30
0.0
  0
ENDBLK
  5
24AE0
  8
0
  0
BLOCK
  8
0
  2
*D9
 70
     1
 10
0.0
 20
0.0
 30
0.0
  3
*D9
  1

  0
LINE
  5
26536
  8
寸法
 62
     2
 10
33.0042458905560423
 20
165.0231403648544131
 30
0.0
 11
33.0042458905560423
 21
156.7127017034493974
 31
0.0
  0
LINE
  5
26537
  8
寸法
 62
     2
 10
114.404245890556993
 20
164.9943993987016029
 30
0.0
 11
114.404245890556993
 21
156.7127017034493974
 31
0.0
  0
LINE
  5
26538
  8
寸法
 62
     2
 10
33.8042458905560324
 20
156.7127017034493974
 30
0.0
 11
113.6042458905569958
 21
156.7127017034493974
 31
0.0
  0
INSERT
  5
26539
  8
寸法
 62
     2
  2
_DOT
 10
33.0042458905560423
 20
156.7127017034493974
 30
0.0
 41
0.8
 42
0.8
 43
0.8
 50
180.0
  0
INSERT
  5
2653A
  8
寸法
 62
     2
  2
_DOT
 10
114.404245890556993
 20
156.7127017034493974
 30
0.0
 41
0.8
 42
0.8
 43
0.8
  0
INSERT
  5
2653B
  8
寸法
  2
*U71
 10
0.0
 20
0.0
 30
0.0
  0
POINT
  5
2653C
  8
DEFPOINTS
 62
     0
 10
33.0042458905560423
 20
167.0231403648544131
 30
0.0
  0
POINT
  5
2653D
  8
DEFPOINTS
 62
     0
 10
114.404245890556993
 20
166.9943993987016029
 30
0.0
  0
POINT
  5
2653E
  8
DEFPOINTS
 62
     0
 10
114.404245890556993
 20
156.7127017034493974
 30
0.0
  0
ENDBLK
  5
24AED
  8
0
  0
BLOCK
  8
0
  2
*D10
 70
     1
 10
0.0
 20
0.0
 30
0.0
  3
*D10
  1

  0
LINE
  5
26524
  8
寸法
 62
     2
 10
110.9042158905568982
 20
164.9943993987016029
 30
0.0
 11
110.9042158905568982
 21
161.0944143987024972
 31
0.0
  0
LINE
  5
26525
  8
寸法
 62
     2
 10
36.5042127447110332
 20
164.9943993987016029
 30
0.0
 11
36.5042127447110332
 21
161.0944143987024972
 31
0.0
  0
LINE
  5
26526
  8
寸法
 62
     2
 10
110.1042158905569011
 20
161.0944143987024972
 30
0.0
 11
37.3042127447110232
 21
161.0944143987024972
 31
0.0
  0
INSERT
  5
26527
  8
寸法
 62
     2
  2
_DOT
 10
110.9042158905568982
 20
161.0944143987024972
 30
0.0
 41
0.8
 42
0.8
 43
0.8
  0
INSERT
  5
26528
  8
寸法
 62
     2
  2
_DOT
 10
36.5042127447110332
 20
161.0944143987024972
 30
0.0
 41
0.8
 42
0.8
 43
0.8
 50
180.0
  0
INSERT
  5
26529
  8
寸法
  2
*U70
 10
0.0
 20
0.0
 30
0.0
  0
POINT
  5
2652A
  8
DEFPOINTS
 62
     0
 10
110.9042158905568982
 20
166.9943993987016029
 30
0.0
  0
POINT
  5
2652B
  8
DEFPOINTS
 62
     0
 10
36.5042127447110332
 20
166.9943993987016029
 30
0.0
  0
POINT
  5
2652C
  8
DEFPOINTS
 62
     0
 10
36.5042127447110332
 20
161.0944143987024972
 30
0.0
  0
ENDBLK
  5
24AF9
  8
0
  0
BLOCK
  8
0
  2
*D11
 70
     1
 10
0.0
 20
0.0
 30
0.0
  3
*D11
  1

  0
LINE
  5
25DDE
  8
寸法
 62
     2
 10
36.5042127447110332
 20
164.9943993987016029
 30
0.0
 11
36.5042127447110332
 21
161.0944143987024972
 31
0.0
  0
LINE
  5
25DDF
  8
寸法
 62
     2
 10
33.0042458905560423
 20
165.0231403648544131
 30
0.0
 11
33.0042458905560423
 21
161.0944143987024972
 31
0.0
  0
LINE
  5
25DE0
  8
寸法
 62
     2
 10
35.7042127447110289
 20
161.0944143987024972
 30
0.0
 11
33.8042458905560324
 21
161.0944143987024972
 31
0.0
  0
INSERT
  5
25DE1
  8
寸法
 62
     2
  2
_DOT
 10
36.5042127447110332
 20
161.0944143987024972
 30
0.0
 41
0.8
 42
0.8
 43
0.8
  0
INSERT
  5
25DE2
  8
寸法
 62
     2
  2
_DOT
 10
33.0042458905560423
 20
161.0944143987024972
 30
0.0
 41
0.8
 42
0.8
 43
0.8
 50
180.0
  0
INSERT
  5
25DE3
  8
寸法
  2
*U43
 10
0.0
 20
0.0
 30
0.0
  0
POINT
  5
25DE4
  8
DEFPOINTS
 62
     0
 10
36.5042127447110332
 20
166.9943993987016029
 30
0.0
  0
POINT
  5
25DE5
  8
DEFPOINTS
 62
     0
 10
33.0042458905560423
 20
167.0231403648544131
 30
0.0
  0
POINT
  5
25DE6
  8
DEFPOINTS
 62
     0
 10
33.0042458905560423
 20
161.0944143987024972
 30
0.0
  0
ENDBLK
  5
24B05
  8
0
  0
BLOCK
  8
0
  2
*D12
 70
     1
 10
0.0
 20
0.0
 30
0.0
  3
*D12
  1

  0
LINE
  5
25DE7
  8
寸法
 62
     2
 10
31.0042458905560494
 20
174.5230903648545109
 30
0.0
 11
26.0042458905619895
 21
174.5230903648545109
 31
0.0
  0
LINE
  5
25DE8
  8
寸法
 62
     2
 10
31.0042458905560494
 20
167.0231403648544131
 30
0.0
 11
26.0042458905619895
 21
167.0231403648544131
 31
0.0
  0
LINE
  5
25DE9
  8
寸法
 62
     2
 10
26.0042458905619895
 20
173.7230903648544995
 30
0.0
 11
26.0042458905619895
 21
167.823140364854396
 31
0.0
  0
INSERT
  5
25DEA
  8
寸法
 62
     2
  2
_DOT
 10
26.0042458905619895
 20
174.5230903648545109
 30
0.0
 41
0.8
 42
0.8
 43
0.8
 50
90.0
  0
INSERT
  5
25DEB
  8
寸法
 62
     2
  2
_DOT
 10
26.0042458905619895
 20
167.0231403648544131
 30
0.0
 41
0.8
 42
0.8
 43
0.8
 50
270.0
  0
INSERT
  5
25DEC
  8
寸法
  2
*U44
 10
0.0
 20
0.0
 30
0.0
  0
POINT
  5
25DED
  8
DEFPOINTS
 62
     0
 10
33.0042458905560494
 20
174.5230903648545109
 30
0.0
  0
POINT
  5
25DEE
  8
DEFPOINTS
 62
     0
 10
33.0042458905560494
 20
167.0231403648544131
 30
0.0
  0
POINT
  5
25DEF
  8
DEFPOINTS
 62
     0
 10
26.0042458905619895
 20
167.0231403648544131
 30
0.0
  0
ENDBLK
  5
24B11
  8
0
  0
BLOCK
  8
0
  2
*D13
 70
     1
 10
0.0
 20
0.0
 30
0.0
  3
*D13
  1

  0
LINE
  5
25DF0
  8
寸法
 62
     2
 10
114.404245890556993
 20
164.9943993987016029
 30
0.0
 11
114.404245890556993
 21
161.0944143987024972
 31
0.0
  0
LINE
  5
25DF1
  8
寸法
 62
     2
 10
110.9042158905568982
 20
164.9943993987016029
 30
0.0
 11
110.9042158905568982
 21
161.0944143987024972
 31
0.0
  0
LINE
  5
25DF2
  8
寸法
 62
     2
 10
113.6042458905569958
 20
161.0944143987024972
 30
0.0
 11
111.7042158905568954
 21
161.0944143987024972
 31
0.0
  0
INSERT
  5
25DF3
  8
寸法
 62
     2
  2
_DOT
 10
114.404245890556993
 20
161.0944143987024972
 30
0.0
 41
0.8
 42
0.8
 43
0.8
  0
INSERT
  5
25DF4
  8
寸法
 62
     2
  2
_DOT
 10
110.9042158905568982
 20
161.0944143987024972
 30
0.0
 41
0.8
 42
0.8
 43
0.8
 50
180.0
  0
INSERT
  5
25DF5
  8
寸法
  2
*U45
 10
0.0
 20
0.0
 30
0.0
  0
POINT
  5
25DF6
  8
DEFPOINTS
 62
     0
 10
114.404245890556993
 20
166.9943993987016029
 30
0.0
  0
POINT
  5
25DF7
  8
DEFPOINTS
 62
     0
 10
110.9042158905568982
 20
166.9943993987016029
 30
0.0
  0
POINT
  5
25DF8
  8
DEFPOINTS
 62
     0
 10
110.9042158905568982
 20
161.0944143987024972
 30
0.0
  0
ENDBLK
  5
24B1D
  8
0
  0
BLOCK
  8
0
  2
*D16
 70
     1
 10
0.0
 20
0.0
 30
0.0
  3
*D16
  1

  0
LINE
  5
266CF
  8
寸法
 62
     2
 10
208.560521963386492
 20
169.621793795351806
 30
0.0
 11
205.785066098224604
 21
169.621793795351806
 31
0.0
  0
LINE
  5
266D0
  8
寸法
 62
     2
 10
208.560521963386492
 20
156.955127128685092
 30
0.0
 11
205.785066098224604
 21
156.955127128685092
 31
0.0
  0
LINE
  5
266D1
  8
寸法
 62
     2
 10
205.785066098224604
 20
169.2217937953518003
 30
0.0
 11
205.785066098224604
 21
157.3551271286850977
 31
0.0
  0
INSERT
  5
266D2
  8
寸法
 62
     2
  2
_DOT
 10
205.785066098224604
 20
169.621793795351806
 30
0.0
 41
0.4
 42
0.4
 43
0.4
 50
90.0
  0
INSERT
  5
266D3
  8
寸法
 62
     2
  2
_DOT
 10
205.785066098224604
 20
156.955127128685092
 30
0.0
 41
0.4
 42
0.4
 43
0.4
 50
270.0
  0
INSERT
  5
266D4
  8
寸法
  2
*U77
 10
0.0
 20
0.0
 30
0.0
  0
POINT
  5
266D5
  8
DEFPOINTS
 62
     0
 10
210.560521963386492
 20
169.621793795351806
 30
0.0
  0
POINT
  5
266D6
  8
DEFPOINTS
 62
     0
 10
210.560521963386492
 20
156.955127128685092
 30
0.0
  0
POINT
  5
266D7
  8
DEFPOINTS
 62
     0
 10
205.785066098224604
 20
156.955127128685092
 30
0.0
  0
ENDBLK
  5
24D2C
  8
0
  0
BLOCK
  8
0
  2
*D17
 70
     1
 10
0.0
 20
0.0
 30
0.0
  3
*D17
  1

  0
LINE
  5
266D8
  8
寸法
 62
     2
 10
208.560521963386492
 20
156.955127128685092
 30
0.0
 11
205.785066098224604
 21
156.955127128685092
 31
0.0
  0
LINE
  5
266D9
  8
寸法
 62
     2
 10
208.5606478179826979
 20
132.9586732532428925
 30
0.0
 11
205.785066098224604
 21
132.9586732532428925
 31
0.0
  0
LINE
  5
266DA
  8
寸法
 62
     2
 10
205.785066098224604
 20
156.5551271286850863
 30
0.0
 11
205.785066098224604
 21
133.3586732532428982
 31
0.0
  0
INSERT
  5
266DB
  8
寸法
 62
     2
  2
_DOT
 10
205.785066098224604
 20
156.955127128685092
 30
0.0
 41
0.4
 42
0.4
 43
0.4
 50
90.0
  0
INSERT
  5
266DC
  8
寸法
 62
     2
  2
_DOT
 10
205.785066098224604
 20
132.9586732532428925
 30
0.0
 41
0.4
 42
0.4
 43
0.4
 50
270.0
  0
INSERT
  5
266DD
  8
寸法
  2
*U78
 10
0.0
 20
0.0
 30
0.0
  0
POINT
  5
266DE
  8
DEFPOINTS
 62
     0
 10
210.560521963386492
 20
156.955127128685092
 30
0.0
  0
POINT
  5
266DF
  8
DEFPOINTS
 62
     0
 10
210.5606478179826979
 20
132.9586732532428925
 30
0.0
  0
POINT
  5
266E0
  8
DEFPOINTS
 62
     0
 10
205.785066098224604
 20
132.9586732532428925
 30
0.0
  0
ENDBLK
  5
24D44
  8
0
  0
BLOCK
  8
0
  2
*D18
 70
     1
 10
0.0
 20
0.0
 30
0.0
  3
*D18
  1

  0
LINE
  5
266E1
  8
寸法
 62
     2
 10
208.3931946527357013
 20
132.959047465440193
 30
0.0
 11
205.7850660982248883
 21
132.959047465440193
 31
0.0
  0
LINE
  5
266E2
  8
寸法
 62
     2
 10
208.3931946527357013
 20
111.621793795351806
 30
0.0
 11
205.7850660982248883
 21
111.621793795351806
 31
0.0
  0
LINE
  5
266E3
  8
寸法
 62
     2
 10
205.7850660982248883
 20
132.5590474654401874
 30
0.0
 11
205.7850660982248883
 21
112.0217937953517975
 31
0.0
  0
INSERT
  5
266E4
  8
寸法
 62
     2
  2
_DOT
 10
205.7850660982248883
 20
132.959047465440193
 30
0.0
 41
0.4
 42
0.4
 43
0.4
 50
90.0
  0
INSERT
  5
266E5
  8
寸法
 62
     2
  2
_DOT
 10
205.7850660982248883
 20
111.621793795351806
 30
0.0
 41
0.4
 42
0.4
 43
0.4
 50
270.0
  0
INSERT
  5
266E6
  8
寸法
  2
*U79
 10
0.0
 20
0.0
 30
0.0
  0
POINT
  5
266E7
  8
DEFPOINTS
 62
     0
 10
210.3931946527357013
 20
132.959047465440193
 30
0.0
  0
POINT
  5
266E8
  8
DEFPOINTS
 62
     0
 10
210.3931946527357013
 20
111.621793795351806
 30
0.0
  0
POINT
  5
266E9
  8
DEFPOINTS
 62
     0
 10
205.7850660982248883
 20
111.621793795351806
 30
0.0
  0
ENDBLK
  5
24D5C
  8
0
  0
BLOCK
  8
0
  2
*D19
 70
     1
 10
0.0
 20
0.0
 30
0.0
  3
*D19
  1

  0
LINE
  5
26188
  8
寸法
 62
     2
 10
208.0517678401079138
 20
111.621793795351806
 30
0.0
 11
205.785066098225002
 21
111.621793795351806
 31
0.0
  0
LINE
  5
26189
  8
寸法
 62
     2
 10
208.0517678401079138
 20
91.621793795351806
 30
0.0
 11
205.785066098225002
 21
91.621793795351806
 31
0.0
  0
LINE
  5
2618A
  8
寸法
 62
     2
 10
205.785066098225002
 20
111.2217937953518003
 30
0.0
 11
205.785066098225002
 21
92.0217937953518117
 31
0.0
  0
INSERT
  5
2618B
  8
寸法
 62
     2
  2
_DOT
 10
205.785066098225002
 20
111.621793795351806
 30
0.0
 41
0.4
 42
0.4
 43
0.4
 50
90.0
  0
INSERT
  5
2618C
  8
寸法
 62
     2
  2
_DOT
 10
205.785066098225002
 20
91.621793795351806
 30
0.0
 41
0.4
 42
0.4
 43
0.4
 50
270.0
  0
INSERT
  5
2618D
  8
寸法
  2
*U46
 10
0.0
 20
0.0
 30
0.0
  0
POINT
  5
2618E
  8
DEFPOINTS
 62
     0
 10
210.0517678401078001
 20
111.621793795351806
 30
0.0
  0
POINT
  5
2618F
  8
DEFPOINTS
 62
     0
 10
210.0517678401078001
 20
91.621793795351806
 30
0.0
  0
POINT
  5
26190
  8
DEFPOINTS
 62
     0
 10
205.785066098225002
 20
91.621793795351806
 30
0.0
  0
ENDBLK
  5
24D74
  8
0
  0
BLOCK
  8
0
  2
*D20
 70
     1
 10
0.0
 20
0.0
 30
0.0
  3
*D20
  1

  0
LINE
  5
26191
  8
寸法
 62
     2
 10
208.0517678401079138
 20
91.621793795351806
 30
0.0
 11
205.7850660982253999
 21
91.621793795351806
 31
0.0
  0
LINE
  5
26192
  8
寸法
 62
     2
 10
208.0584559821367918
 20
84.2938357772646469
 30
0.0
 11
205.7850660982253999
 21
84.2938357772646469
 31
0.0
  0
LINE
  5
26193
  8
寸法
 62
     2
 10
205.7850660982253999
 20
91.2217937953518145
 30
0.0
 11
205.7850660982253999
 21
84.6938357772646668
 31
0.0
  0
INSERT
  5
26194
  8
寸法
 62
     2
  2
_DOT
 10
205.7850660982253999
 20
91.621793795351806
 30
0.0
 41
0.4
 42
0.4
 43
0.4
 50
90.0
  0
INSERT
  5
26195
  8
寸法
 62
     2
  2
_DOT
 10
205.7850660982253999
 20
84.2938357772646469
 30
0.0
 41
0.4
 42
0.4
 43
0.4
 50
270.0
  0
INSERT
  5
26196
  8
寸法
  2
*U47
 10
0.0
 20
0.0
 30
0.0
  0
POINT
  5
26197
  8
DEFPOINTS
 62
     0
 10
210.0517678401078001
 20
91.621793795351806
 30
0.0
  0
POINT
  5
26198
  8
DEFPOINTS
 62
     0
 10
210.0584559821367918
 20
84.2938357772646469
 30
0.0
  0
POINT
  5
26199
  8
DEFPOINTS
 62
     0
 10
205.7850660982253999
 20
84.2938357772646469
 30
0.0
  0
ENDBLK
  5
24D8C
  8
0
  0
BLOCK
  8
0
  2
*D21
 70
     1
 10
0.0
 20
0.0
 30
0.0
  3
*D21
  1

  0
LINE
  5
266C6
  8
寸法
 62
     2
 10
207.8270168904979016
 20
169.6293673792910965
 30
0.0
 11
198.3279760561507032
 21
169.6293673792910965
 31
0.0
  0
LINE
  5
266C7
  8
寸法
 62
     2
 10
207.8270168904979016
 20
51.5314571457774733
 30
0.0
 11
198.3279760561507032
 21
51.5314571457774733
 31
0.0
  0
LINE
  5
266C8
  8
寸法
 62
     2
 10
198.3279760561507032
 20
169.2293673792910909
 30
0.0
 11
198.3279760561507032
 21
51.9314571457774719
 31
0.0
  0
INSERT
  5
266C9
  8
寸法
 62
     2
  2
_DOT
 10
198.3279760561507032
 20
169.6293673792910965
 30
0.0
 41
0.4
 42
0.4
 43
0.4
 50
90.0
  0
INSERT
  5
266CA
  8
寸法
 62
     2
  2
_DOT
 10
198.3279760561507032
 20
51.5314571457774733
 30
0.0
 41
0.4
 42
0.4
 43
0.4
 50
270.0
  0
INSERT
  5
266CB
  8
寸法
  2
*U76
 10
0.0
 20
0.0
 30
0.0
  0
POINT
  5
266CC
  8
DEFPOINTS
 62
     0
 10
209.8270168904979016
 20
169.6293673792910965
 30
0.0
  0
POINT
  5
266CD
  8
DEFPOINTS
 62
     0
 10
209.8270168904979016
 20
51.5314571457774804
 30
0.0
  0
POINT
  5
266CE
  8
DEFPOINTS
 62
     0
 10
198.3279760561507032
 20
51.5314571457774733
 30
0.0
  0
ENDBLK
  5
24DD4
  8
0
  0
BLOCK
  8
0
  2
*D22
 70
     1
 10
0.0
 20
0.0
 30
0.0
  3
*D22
  1

  0
LINE
  5
266AB
  8
寸法
 62
     2
 10
48.3031523071833035
 20
109.4325332283589063
 30
0.0
 11
47.2475431307772311
 21
109.4325332283589063
 31
0.0
  0
LINE
  5
266AC
  8
寸法
 62
     2
 10
48.3031523071833035
 20
102.2325332283589034
 30
0.0
 11
47.2475431307772311
 21
102.2325332283589034
 31
0.0
  0
LINE
  5
266AD
  8
寸法
 62
     2
 10
47.2475431307772311
 20
109.0325332283589006
 30
0.0
 11
47.2475431307772311
 21
102.6325332283588949
 31
0.0
  0
INSERT
  5
266AE
  8
寸法
 62
     2
  2
_DOT
 10
47.2475431307772311
 20
109.4325332283589063
 30
0.0
 41
0.4
 42
0.4
 43
0.4
 50
90.0
  0
INSERT
  5
266AF
  8
寸法
 62
     2
  2
_DOT
 10
47.2475431307772311
 20
102.2325332283589034
 30
0.0
 41
0.4
 42
0.4
 43
0.4
 50
270.0
  0
INSERT
  5
266B0
  8
寸法
  2
*U73
 10
0.0
 20
0.0
 30
0.0
  0
POINT
  5
266B1
  8
DEFPOINTS
 62
     0
 10
50.3031523071832893
 20
109.4325332283589063
 30
0.0
  0
POINT
  5
266B2
  8
DEFPOINTS
 62
     0
 10
50.3031523071832893
 20
102.2325332283589034
 30
0.0
  0
POINT
  5
266B3
  8
DEFPOINTS
 62
     0
 10
47.2475431307772311
 20
102.2325332283589034
 30
0.0
  0
ENDBLK
  5
24E5B
  8
0
  0
BLOCK
  8
0
  2
*D23
 70
     1
 10
0.0
 20
0.0
 30
0.0
  3
*D23
  1

  0
LINE
  5
266B4
  8
寸法
 62
     2
 10
48.3031523071833035
 20
109.4325332283589063
 30
0.0
 11
47.2475431307775935
 21
109.4325332283589063
 31
0.0
  0
LINE
  5
266B5
  8
寸法
 62
     2
 10
48.3031523071833035
 20
113.2325332283589034
 30
0.0
 11
47.2475431307775793
 21
113.2325332283589034
 31
0.0
  0
LINE
  5
266B6
  8
寸法
 62
     2
 10
47.2475431307775935
 20
109.8325332283588978
 30
0.0
 11
47.2475431307775793
 21
112.8325332283588978
 31
0.0
  0
INSERT
  5
266B7
  8
寸法
 62
     2
  2
_DOT
 10
47.2475431307775935
 20
109.4325332283589063
 30
0.0
 41
0.4
 42
0.4
 43
0.4
 50
270.0
  0
INSERT
  5
266B8
  8
寸法
 62
     2
  2
_DOT
 10
47.2475431307775793
 20
113.2325332283589034
 30
0.0
 41
0.4
 42
0.4
 43
0.4
 50
90.0
  0
INSERT
  5
266B9
  8
寸法
  2
*U74
 10
0.0
 20
0.0
 30
0.0
  0
POINT
  5
266BA
  8
DEFPOINTS
 62
     0
 10
50.3031523071832893
 20
109.4325332283589063
 30
0.0
  0
POINT
  5
266BB
  8
DEFPOINTS
 62
     0
 10
50.3031523071832893
 20
113.2325332283589034
 30
0.0
  0
POINT
  5
266BC
  8
DEFPOINTS
 62
     0
 10
47.2475431307775793
 20
113.2325332283589034
 30
0.0
  0
ENDBLK
  5
24EA7
  8
0
  0
BLOCK
  8
0
  2
*D24
 70
     1
 10
0.0
 20
0.0
 30
0.0
  3
*D24
  1

  0
LINE
  5
264DF
  8
寸法
 62
     2
 10
52.7705582604604615
 20
49.3915026722219466
 30
0.0
 11
52.7705582604604615
 21
46.7883101168616165
 31
0.0
  0
LINE
  5
264E0
  8
寸法
 62
     2
 10
58.57055826046048
 20
49.3915026722219608
 30
0.0
 11
58.57055826046048
 21
46.7883101168616165
 31
0.0
  0
LINE
  5
264E1
  8
寸法
 62
     2
 10
53.1705582604604601
 20
46.7883101168616165
 30
0.0
 11
58.1705582604604814
 21
46.7883101168616165
 31
0.0
  0
INSERT
  5
264E2
  8
寸法
 62
     2
  2
_DOT
 10
52.7705582604604615
 20
46.7883101168616165
 30
0.0
 41
0.4
 42
0.4
 43
0.4
 50
180.0
  0
INSERT
  5
264E3
  8
寸法
 62
     2
  2
_DOT
 10
58.57055826046048
 20
46.7883101168616165
 30
0.0
 41
0.4
 42
0.4
 43
0.4
  0
INSERT
  5
264E4
  8
寸法
  2
*U66
 10
0.0
 20
0.0
 30
0.0
  0
POINT
  5
264E5
  8
DEFPOINTS
 62
     0
 10
52.7705582604604615
 20
51.3915026722219466
 30
0.0
  0
POINT
  5
264E6
  8
DEFPOINTS
 62
     0
 10
58.57055826046048
 20
51.3915026722219466
 30
0.0
  0
POINT
  5
264E7
  8
DEFPOINTS
 62
     0
 10
58.57055826046048
 20
46.7883101168616165
 30
0.0
  0
ENDBLK
  5
259D8
  8
0
  0
BLOCK
  8
0
  2
*D25
 70
     1
 10
0.0
 20
0.0
 30
0.0
  3
*D25
  1

  0
LINE
  5
264D6
  8
寸法
 62
     2
 10
58.5705582604604871
 20
49.3915026722219608
 30
0.0
 11
58.5705582604604871
 21
46.7883101168616165
 31
0.0
  0
LINE
  5
264D7
  8
寸法
 62
     2
 10
75.5705582604604871
 20
49.3915026722219608
 30
0.0
 11
75.5705582604604871
 21
46.7883101168616165
 31
0.0
  0
LINE
  5
264D8
  8
寸法
 62
     2
 10
58.9705582604604928
 20
46.7883101168616165
 30
0.0
 11
75.1705582604604814
 21
46.7883101168616165
 31
0.0
  0
INSERT
  5
264D9
  8
寸法
 62
     2
  2
_DOT
 10
58.5705582604604871
 20
46.7883101168616165
 30
0.0
 41
0.4
 42
0.4
 43
0.4
 50
180.0
  0
INSERT
  5
264DA
  8
寸法
 62
     2
  2
_DOT
 10
75.5705582604604871
 20
46.7883101168616165
 30
0.0
 41
0.4
 42
0.4
 43
0.4
  0
INSERT
  5
264DB
  8
寸法
  2
*U65
 10
0.0
 20
0.0
 30
0.0
  0
POINT
  5
264DC
  8
DEFPOINTS
 62
     0
 10
58.5705582604604871
 20
51.3915026722219679
 30
0.0
  0
POINT
  5
264DD
  8
DEFPOINTS
 62
     0
 10
75.5705582604604871
 20
51.3915026722219679
 30
0.0
  0
POINT
  5
264DE
  8
DEFPOINTS
 62
     0
 10
75.5705582604604871
 20
46.7883101168616165
 30
0.0
  0
ENDBLK
  5
259F0
  8
0
  0
BLOCK
  8
0
  2
*D26
 70
     1
 10
0.0
 20
0.0
 30
0.0
  3
*D26
  1

  0
LINE
  5
264CC
  8
寸法
 62
     2
 10
75.5705582604604871
 20
49.3915026722219608
 30
0.0
 11
75.5705582604604871
 21
46.7303646035087183
 31
0.0
  0
LINE
  5
264CD
  8
寸法
 62
     2
 10
77.37055826046047
 20
49.3915026722219892
 30
0.0
 11
77.37055826046047
 21
46.7303646035087183
 31
0.0
  0
LINE
  5
264CE
  8
寸法
 62
     2
 10
75.1705582604604814
 20
46.7303646035087183
 30
0.0
 11
74.7705582604604899
 21
46.7303646035087183
 31
0.0
  0
LINE
  5
264CF
  8
寸法
 62
     2
 10
77.7705582604604757
 20
46.7303646035087183
 30
0.0
 11
78.1705582604604672
 21
46.7303646035087183
 31
0.0
  0
INSERT
  5
264D0
  8
寸法
 62
     2
  2
_DOT
 10
75.5705582604604871
 20
46.7303646035087183
 30
0.0
 41
0.4
 42
0.4
 43
0.4
  0
INSERT
  5
264D1
  8
寸法
 62
     2
  2
_DOT
 10
77.37055826046047
 20
46.7303646035087183
 30
0.0
 41
0.4
 42
0.4
 43
0.4
 50
180.0
  0
INSERT
  5
264D2
  8
寸法
  2
*U64
 10
0.0
 20
0.0
 30
0.0
  0
POINT
  5
264D3
  8
DEFPOINTS
 62
     0
 10
75.5705582604604871
 20
51.3915026722219679
 30
0.0
  0
POINT
  5
264D4
  8
DEFPOINTS
 62
     0
 10
77.37055826046047
 20
51.3915026722219892
 30
0.0
  0
POINT
  5
264D5
  8
DEFPOINTS
 62
     0
 10
77.37055826046047
 20
46.7303646035087183
 30
0.0
  0
ENDBLK
  5
25A08
  8
0
  0
BLOCK
  8
0
  2
*D27
 70
     1
 10
0.0
 20
0.0
 30
0.0
  3
*D27
  1

  0
LINE
  5
264C3
  8
寸法
 62
     2
 10
77.37055826046047
 20
49.3915026722219821
 30
0.0
 11
77.37055826046047
 21
46.7883101168616165
 31
0.0
  0
LINE
  5
264C4
  8
寸法
 62
     2
 10
94.3705582604604842
 20
49.3915026722219466
 30
0.0
 11
94.3705582604604842
 21
46.7883101168616165
 31
0.0
  0
LINE
  5
264C5
  8
寸法
 62
     2
 10
77.7705582604604757
 20
46.7883101168616165
 30
0.0
 11
93.9705582604604643
 21
46.7883101168616165
 31
0.0
  0
INSERT
  5
264C6
  8
寸法
 62
     2
  2
_DOT
 10
77.37055826046047
 20
46.7883101168616165
 30
0.0
 41
0.4
 42
0.4
 43
0.4
 50
180.0
  0
INSERT
  5
264C7
  8
寸法
 62
     2
  2
_DOT
 10
94.3705582604604842
 20
46.7883101168616165
 30
0.0
 41
0.4
 42
0.4
 43
0.4
  0
INSERT
  5
264C8
  8
寸法
  2
*U63
 10
0.0
 20
0.0
 30
0.0
  0
POINT
  5
264C9
  8
DEFPOINTS
 62
     0
 10
77.37055826046047
 20
51.3915026722219821
 30
0.0
  0
POINT
  5
264CA
  8
DEFPOINTS
 62
     0
 10
94.3705582604604842
 20
51.3915026722219466
 30
0.0
  0
POINT
  5
264CB
  8
DEFPOINTS
 62
     0
 10
94.3705582604604842
 20
46.7883101168616165
 30
0.0
  0
ENDBLK
  5
25A22
  8
0
  0
BLOCK
  8
0
  2
*D28
 70
     1
 10
0.0
 20
0.0
 30
0.0
  3
*D28
  1

  0
LINE
  5
264E8
  8
本体1
 62
     2
 10
94.3705582604604842
 20
49.3915026722219466
 30
0.0
 11
94.3705582604604842
 21
46.7883101168616165
 31
0.0
  0
LINE
  5
264E9
  8
本体1
 62
     2
 10
96.7705582604604615
 20
49.3915026722219466
 30
0.0
 11
96.7705582604604615
 21
46.7883101168616165
 31
0.0
  0
LINE
  5
264EA
  8
本体1
 62
     2
 10
94.7705582604604899
 20
46.7883101168616165
 30
0.0
 11
96.3705582604604558
 21
46.7883101168616165
 31
0.0
  0
INSERT
  5
264EB
  8
本体1
 62
     2
  2
_DOT
 10
94.3705582604604842
 20
46.7883101168616165
 30
0.0
 41
0.4
 42
0.4
 43
0.4
 50
180.0
  0
INSERT
  5
264EC
  8
本体1
 62
     2
  2
_DOT
 10
96.7705582604604615
 20
46.7883101168616165
 30
0.0
 41
0.4
 42
0.4
 43
0.4
  0
INSERT
  5
264ED
  8
寸法
  2
*U67
 10
0.0
 20
0.0
 30
0.0
  0
POINT
  5
264EE
  8
DEFPOINTS
 62
     0
 10
94.3705582604604842
 20
51.3915026722219466
 30
0.0
  0
POINT
  5
264EF
  8
DEFPOINTS
 62
     0
 10
96.7705582604604615
 20
51.3915026722219466
 30
0.0
  0
POINT
  5
264F0
  8
DEFPOINTS
 62
     0
 10
96.7705582604604615
 20
46.7883101168616165
 30
0.0
  0
ENDBLK
  5
25A3B
  8
0
  0
BLOCK
  8
0
  2
*D29
 70
     1
 10
0.0
 20
0.0
 30
0.0
  3
*D29
  1

  0
LINE
  5
266A2
  8
寸法
 62
     2
 10
49.0934049520571421
 20
95.8325332283589404
 30
0.0
 11
47.2475431307772027
 21
95.8325332283589404
 31
0.0
  0
LINE
  5
266A3
  8
寸法
 62
     2
 10
49.0934049520571278
 20
102.2325332283589034
 30
0.0
 11
47.2475431307772027
 21
102.2325332283589034
 31
0.0
  0
LINE
  5
266A4
  8
寸法
 62
     2
 10
47.2475431307772027
 20
96.2325332283589603
 30
0.0
 11
47.2475431307772027
 21
101.8325332283588978
 31
0.0
  0
INSERT
  5
266A5
  8
寸法
 62
     2
  2
_DOT
 10
47.2475431307772027
 20
95.8325332283589404
 30
0.0
 41
0.4
 42
0.4
 43
0.4
 50
270.0
  0
INSERT
  5
266A6
  8
寸法
 62
     2
  2
_DOT
 10
47.2475431307772027
 20
102.2325332283589034
 30
0.0
 41
0.4
 42
0.4
 43
0.4
 50
90.0
  0
INSERT
  5
266A7
  8
寸法
  2
*U72
 10
0.0
 20
0.0
 30
0.0
  0
POINT
  5
266A8
  8
DEFPOINTS
 62
     0
 10
51.0934049520571421
 20
95.8325332283589404
 30
0.0
  0
POINT
  5
266A9
  8
DEFPOINTS
 62
     0
 10
51.0934049520571278
 20
102.2325332283589034
 30
0.0
  0
POINT
  5
266AA
  8
DEFPOINTS
 62
     0
 10
47.2475431307772027
 20
102.2325332283589034
 30
0.0
  0
ENDBLK
  5
25E88
  8
0
  0
BLOCK
  8
0
  2
*D30
 70
     1
 10
0.0
 20
0.0
 30
0.0
  3
*D30
  1

  0
LINE
  5
2641E
  8
寸法
 62
     2
 10
49.0934049520571278
 20
95.8325332283589262
 30
0.0
 11
47.2475431307772311
 21
95.8325332283589262
 31
0.0
  0
LINE
  5
2641F
  8
寸法
 62
     2
 10
49.0934049520571278
 20
89.8325332283589262
 30
0.0
 11
47.2475431307772311
 21
89.8325332283589262
 31
0.0
  0
LINE
  5
26420
  8
寸法
 62
     2
 10
47.2475431307772311
 20
95.4325332283589347
 30
0.0
 11
47.2475431307772311
 21
90.2325332283589319
 31
0.0
  0
INSERT
  5
26421
  8
寸法
 62
     2
  2
_DOT
 10
47.2475431307772311
 20
95.8325332283589262
 30
0.0
 41
0.4
 42
0.4
 43
0.4
 50
90.0
  0
INSERT
  5
26422
  8
寸法
 62
     2
  2
_DOT
 10
47.2475431307772311
 20
89.8325332283589262
 30
0.0
 41
0.4
 42
0.4
 43
0.4
 50
270.0
  0
INSERT
  5
26423
  8
寸法
  2
*U56
 10
0.0
 20
0.0
 30
0.0
  0
POINT
  5
26424
  8
DEFPOINTS
 62
     0
 10
51.0934049520571278
 20
95.8325332283589262
 30
0.0
  0
POINT
  5
26425
  8
DEFPOINTS
 62
     0
 10
51.0934049520571278
 20
89.8325332283589262
 30
0.0
  0
POINT
  5
26426
  8
DEFPOINTS
 62
     0
 10
47.2475431307772311
 20
89.8325332283589262
 30
0.0
  0
ENDBLK
  5
25EA0
  8
0
  0
BLOCK
  8
0
  2
*D31
 70
     1
 10
0.0
 20
0.0
 30
0.0
  3
*D31
  1

  0
LINE
  5
26415
  8
寸法
 62
     2
 10
49.0934049520571421
 20
89.8325332283589262
 30
0.0
 11
47.2475431307772524
 21
89.8325332283589262
 31
0.0
  0
LINE
  5
26416
  8
寸法
 62
     2
 10
49.0934049520571421
 20
87.6325332283589091
 30
0.0
 11
47.2475431307772524
 21
87.6325332283589091
 31
0.0
  0
LINE
  5
26417
  8
寸法
 62
     2
 10
47.2475431307772524
 20
89.4325332283589063
 30
0.0
 11
47.2475431307772524
 21
88.0325332283589148
 31
0.0
  0
INSERT
  5
26418
  8
寸法
 62
     2
  2
_DOT
 10
47.2475431307772524
 20
89.8325332283589262
 30
0.0
 41
0.4
 42
0.4
 43
0.4
 50
90.0
  0
INSERT
  5
26419
  8
寸法
 62
     2
  2
_DOT
 10
47.2475431307772524
 20
87.6325332283589091
 30
0.0
 41
0.4
 42
0.4
 43
0.4
 50
270.0
  0
INSERT
  5
2641A
  8
寸法
  2
*U55
 10
0.0
 20
0.0
 30
0.0
  0
POINT
  5
2641B
  8
DEFPOINTS
 62
     0
 10
51.0934049520571421
 20
89.8325332283589262
 30
0.0
  0
POINT
  5
2641C
  8
DEFPOINTS
 62
     0
 10
51.0934049520571421
 20
87.6325332283589091
 30
0.0
  0
POINT
  5
2641D
  8
DEFPOINTS
 62
     0
 10
47.2475431307772524
 20
87.6325332283589091
 30
0.0
  0
ENDBLK
  5
25EB8
  8
0
  0
BLOCK
  8
0
  2
*D32
 70
     1
 10
0.0
 20
0.0
 30
0.0
  3
*D32
  1

  0
LINE
  5
261A3
  8
寸法
 62
     2
 10
208.0584559821367918
 20
84.2938357772646469
 30
0.0
 11
205.7850660982257978
 21
84.2938357772646469
 31
0.0
  0
LINE
  5
261A4
  8
寸法
 62
     2
 10
208.0584559821367918
 20
64.1959255437509881
 30
0.0
 11
205.7850660982257978
 21
64.1959255437509881
 31
0.0
  0
LINE
  5
261A5
  8
寸法
 62
     2
 10
205.7850660982257978
 20
83.8938357772646413
 30
0.0
 11
205.7850660982257978
 21
64.5959255437509938
 31
0.0
  0
INSERT
  5
261A6
  8
寸法
 62
     2
  2
_DOT
 10
205.7850660982257978
 20
84.2938357772646469
 30
0.0
 41
0.4
 42
0.4
 43
0.4
 50
90.0
  0
INSERT
  5
261A7
  8
寸法
 62
     2
  2
_DOT
 10
205.7850660982257978
 20
64.1959255437509881
 30
0.0
 41
0.4
 42
0.4
 43
0.4
 50
270.0
  0
INSERT
  5
261A8
  8
寸法
  2
*U48
 10
0.0
 20
0.0
 30
0.0
  0
POINT
  5
261A9
  8
DEFPOINTS
 62
     0
 10
210.0584559821367918
 20
84.2938357772646469
 30
0.0
  0
POINT
  5
261AA
  8
DEFPOINTS
 62
     0
 10
210.0584559821367918
 20
64.1959255437509881
 30
0.0
  0
POINT
  5
261AB
  8
DEFPOINTS
 62
     0
 10
205.7850660982257978
 20
64.1959255437509881
 30
0.0
  0
ENDBLK
  5
260ED
  8
0
  0
BLOCK
  8
0
  2
*D33
 70
     1
 10
0.0
 20
0.0
 30
0.0
  3
*D33
  1

  0
LINE
  5
261AC
  8
寸法
 62
     2
 10
208.0584559821367918
 20
64.1959255437509881
 30
0.0
 11
205.7850660982261104
 21
64.1959255437509881
 31
0.0
  0
LINE
  5
261AD
  8
寸法
 62
     2
 10
208.0584559821367918
 20
51.5296694914433004
 30
0.0
 11
205.7850660982261957
 21
51.5296694914432933
 31
0.0
  0
LINE
  5
261AE
  8
寸法
 62
     2
 10
205.7850660982261957
 20
63.7959255437509896
 30
0.0
 11
205.7850660982261957
 21
51.9296694914432919
 31
0.0
  0
INSERT
  5
261AF
  8
寸法
 62
     2
  2
_DOT
 10
205.7850660982261104
 20
64.1959255437509881
 30
0.0
 41
0.4
 42
0.4
 43
0.4
 50
90.0
  0
INSERT
  5
261B0
  8
寸法
 62
     2
  2
_DOT
 10
205.7850660982261957
 20
51.5296694914432933
 30
0.0
 41
0.4
 42
0.4
 43
0.4
 50
270.0
  0
INSERT
  5
261B1
  8
寸法
  2
*U49
 10
0.0
 20
0.0
 30
0.0
  0
POINT
  5
261B2
  8
DEFPOINTS
 62
     0
 10
210.0584559821367918
 20
64.1959255437509881
 30
0.0
  0
POINT
  5
261B3
  8
DEFPOINTS
 62
     0
 10
210.0584559821367918
 20
51.5296694914433004
 30
0.0
  0
POINT
  5
261B4
  8
DEFPOINTS
 62
     0
 10
205.7850660982261957
 20
51.5296694914432933
 30
0.0
  0
ENDBLK
  5
26105
  8
0
  0
BLOCK
  8
0
  2
*D34
 70
     1
 10
0.0
 20
0.0
 30
0.0
  3
*D34
  1

  0
LINE
  5
264B0
  8
寸法
 62
     2
 10
49.3796559996604429
 20
57.0325332283588722
 30
0.0
 11
47.2475431307773377
 21
57.032533228358858
 31
0.0
  0
LINE
  5
264B1
  8
寸法
 62
     2
 10
49.3796559996604429
 20
53.2325332283589674
 30
0.0
 11
47.2475431307773377
 21
53.2325332283589603
 31
0.0
  0
LINE
  5
264B2
  8
寸法
 62
     2
 10
47.2475431307773377
 20
56.6325332283588594
 30
0.0
 11
47.2475431307773377
 21
53.6325332283589589
 31
0.0
  0
INSERT
  5
264B3
  8
寸法
 62
     2
  2
_DOT
 10
47.2475431307773377
 20
57.032533228358858
 30
0.0
 41
0.4
 42
0.4
 43
0.4
 50
90.0
  0
INSERT
  5
264B4
  8
寸法
 62
     2
  2
_DOT
 10
47.2475431307773377
 20
53.2325332283589603
 30
0.0
 41
0.4
 42
0.4
 43
0.4
 50
270.0
  0
INSERT
  5
264B5
  8
寸法
  2
*U62
 10
0.0
 20
0.0
 30
0.0
  0
POINT
  5
264B6
  8
DEFPOINTS
 62
     0
 10
51.3796559996604429
 20
57.0325332283588722
 30
0.0
  0
POINT
  5
264B7
  8
DEFPOINTS
 62
     0
 10
51.3796559996604429
 20
53.2325332283589674
 30
0.0
  0
POINT
  5
264B8
  8
DEFPOINTS
 62
     0
 10
47.2475431307773377
 20
53.2325332283589603
 30
0.0
  0
ENDBLK
  5
26206
  8
0
  0
BLOCK
  8
0
  2
*D35
 70
     1
 10
0.0
 20
0.0
 30
0.0
  3
*D35
  1

  0
LINE
  5
2640C
  8
寸法
 62
     2
 10
49.0934049520571278
 20
87.6325332283589091
 30
0.0
 11
47.2475431307772595
 21
87.6325332283589091
 31
0.0
  0
LINE
  5
2640D
  8
寸法
 62
     2
 10
49.0934049520571278
 20
81.6325332283588949
 30
0.0
 11
47.2475431307772595
 21
81.6325332283588949
 31
0.0
  0
LINE
  5
2640E
  8
寸法
 62
     2
 10
47.2475431307772595
 20
87.2325332283589034
 30
0.0
 11
47.2475431307772595
 21
82.0325332283589148
 31
0.0
  0
INSERT
  5
2640F
  8
寸法
 62
     2
  2
_DOT
 10
47.2475431307772595
 20
87.6325332283589091
 30
0.0
 41
0.4
 42
0.4
 43
0.4
 50
90.0
  0
INSERT
  5
26410
  8
寸法
 62
     2
  2
_DOT
 10
47.2475431307772595
 20
81.6325332283588949
 30
0.0
 41
0.4
 42
0.4
 43
0.4
 50
270.0
  0
INSERT
  5
26411
  8
寸法
  2
*U54
 10
0.0
 20
0.0
 30
0.0
  0
POINT
  5
26412
  8
DEFPOINTS
 62
     0
 10
51.0934049520571278
 20
87.6325332283589091
 30
0.0
  0
POINT
  5
26413
  8
DEFPOINTS
 62
     0
 10
51.0934049520571278
 20
81.6325332283588949
 30
0.0
  0
POINT
  5
26414
  8
DEFPOINTS
 62
     0
 10
47.2475431307772595
 20
81.6325332283588949
 30
0.0
  0
ENDBLK
  5
26397
  8
0
  0
BLOCK
  8
0
  2
*D36
 70
     1
 10
0.0
 20
0.0
 30
0.0
  3
*D36
  1

  0
LINE
  5
26403
  8
寸法
 62
     2
 10
49.0934049520571421
 20
81.6325332283588949
 30
0.0
 11
47.2475431307772809
 21
81.6325332283588949
 31
0.0
  0
LINE
  5
26404
  8
寸法
 62
     2
 10
49.0934049520571421
 20
79.4325332283589063
 30
0.0
 11
47.2475431307772809
 21
79.4325332283589063
 31
0.0
  0
LINE
  5
26405
  8
寸法
 62
     2
 10
47.2475431307772809
 20
81.2325332283589034
 30
0.0
 11
47.2475431307772809
 21
79.832533228358912
 31
0.0
  0
INSERT
  5
26406
  8
寸法
 62
     2
  2
_DOT
 10
47.2475431307772809
 20
81.6325332283588949
 30
0.0
 41
0.4
 42
0.4
 43
0.4
 50
90.0
  0
INSERT
  5
26407
  8
寸法
 62
     2
  2
_DOT
 10
47.2475431307772809
 20
79.4325332283589063
 30
0.0
 41
0.4
 42
0.4
 43
0.4
 50
270.0
  0
INSERT
  5
26408
  8
寸法
  2
*U53
 10
0.0
 20
0.0
 30
0.0
  0
POINT
  5
26409
  8
DEFPOINTS
 62
     0
 10
51.0934049520571421
 20
81.6325332283588949
 30
0.0
  0
POINT
  5
2640A
  8
DEFPOINTS
 62
     0
 10
51.0934049520571421
 20
79.4325332283589063
 30
0.0
  0
POINT
  5
2640B
  8
DEFPOINTS
 62
     0
 10
47.2475431307772809
 20
79.4325332283589063
 30
0.0
  0
ENDBLK
  5
263A3
  8
0
  0
BLOCK
  8
0
  2
*D37
 70
     1
 10
0.0
 20
0.0
 30
0.0
  3
*D37
  1

  0
LINE
  5
26464
  8
寸法
 62
     2
 10
49.0934049520571421
 20
71.2325332283588892
 30
0.0
 11
47.2475431307773022
 21
71.2325332283588892
 31
0.0
  0
LINE
  5
26465
  8
寸法
 62
     2
 10
49.0934049520571421
 20
65.2325332283588892
 30
0.0
 11
47.2475431307773022
 21
65.2325332283588892
 31
0.0
  0
LINE
  5
26466
  8
寸法
 62
     2
 10
47.2475431307773022
 20
70.8325332283588835
 30
0.0
 11
47.2475431307773022
 21
65.6325332283588949
 31
0.0
  0
INSERT
  5
26467
  8
寸法
 62
     2
  2
_DOT
 10
47.2475431307773022
 20
71.2325332283588892
 30
0.0
 41
0.4
 42
0.4
 43
0.4
 50
90.0
  0
INSERT
  5
26468
  8
寸法
 62
     2
  2
_DOT
 10
47.2475431307773022
 20
65.2325332283588892
 30
0.0
 41
0.4
 42
0.4
 43
0.4
 50
270.0
  0
INSERT
  5
26469
  8
寸法
  2
*U57
 10
0.0
 20
0.0
 30
0.0
  0
POINT
  5
2646A
  8
DEFPOINTS
 62
     0
 10
51.0934049520571421
 20
71.2325332283588892
 30
0.0
  0
POINT
  5
2646B
  8
DEFPOINTS
 62
     0
 10
51.0934049520571421
 20
65.2325332283588892
 30
0.0
  0
POINT
  5
2646C
  8
DEFPOINTS
 62
     0
 10
47.2475431307773022
 20
65.2325332283588892
 30
0.0
  0
ENDBLK
  5
26436
  8
0
  0
BLOCK
  8
0
  2
*D38
 70
     1
 10
0.0
 20
0.0
 30
0.0
  3
*D38
  1

  0
LINE
  5
2646D
  8
寸法
 62
     2
 10
49.0934049520571421
 20
65.2325332283588892
 30
0.0
 11
47.2475431307773022
 21
65.2325332283588892
 31
0.0
  0
LINE
  5
2646E
  8
寸法
 62
     2
 10
49.0934049520571492
 20
63.0325332283588935
 30
0.0
 11
47.2475431307773022
 21
63.0325332283588793
 31
0.0
  0
LINE
  5
2646F
  8
寸法
 62
     2
 10
47.2475431307773022
 20
64.8325332283588835
 30
0.0
 11
47.2475431307773022
 21
63.4325332283588779
 31
0.0
  0
INSERT
  5
26470
  8
寸法
 62
     2
  2
_DOT
 10
47.2475431307773022
 20
65.2325332283588892
 30
0.0
 41
0.4
 42
0.4
 43
0.4
 50
90.0
  0
INSERT
  5
26471
  8
寸法
 62
     2
  2
_DOT
 10
47.2475431307773022
 20
63.0325332283588793
 30
0.0
 41
0.4
 42
0.4
 43
0.4
 50
270.0
  0
INSERT
  5
26472
  8
寸法
  2
*U58
 10
0.0
 20
0.0
 30
0.0
  0
POINT
  5
26473
  8
DEFPOINTS
 62
     0
 10
51.0934049520571492
 20
65.2325332283588892
 30
0.0
  0
POINT
  5
26474
  8
DEFPOINTS
 62
     0
 10
51.0934049520571492
 20
63.0325332283588935
 30
0.0
  0
POINT
  5
26475
  8
DEFPOINTS
 62
     0
 10
47.2475431307773022
 20
63.0325332283588793
 30
0.0
  0
ENDBLK
  5
26442
  8
0
  0
BLOCK
  8
0
  2
*D39
 70
     1
 10
0.0
 20
0.0
 30
0.0
  3
*D39
  1

  0
LINE
  5
26476
  8
寸法
 62
     2
 10
49.0934049520571421
 20
79.4325332283589063
 30
0.0
 11
47.2475431307772666
 21
79.4325332283589063
 31
0.0
  0
LINE
  5
26477
  8
寸法
 62
     2
 10
49.0934049520571421
 20
73.4325332283589063
 30
0.0
 11
47.2475431307772666
 21
73.4325332283589063
 31
0.0
  0
LINE
  5
26478
  8
寸法
 62
     2
 10
47.2475431307772666
 20
79.0325332283589006
 30
0.0
 11
47.2475431307772666
 21
73.832533228358912
 31
0.0
  0
INSERT
  5
26479
  8
寸法
 62
     2
  2
_DOT
 10
47.2475431307772666
 20
79.4325332283589063
 30
0.0
 41
0.4
 42
0.4
 43
0.4
 50
90.0
  0
INSERT
  5
2647A
  8
寸法
 62
     2
  2
_DOT
 10
47.2475431307772666
 20
73.4325332283589063
 30
0.0
 41
0.4
 42
0.4
 43
0.4
 50
270.0
  0
INSERT
  5
2647B
  8
寸法
  2
*U59
 10
0.0
 20
0.0
 30
0.0
  0
POINT
  5
2647C
  8
DEFPOINTS
 62
     0
 10
51.0934049520571421
 20
79.4325332283589063
 30
0.0
  0
POINT
  5
2647D
  8
DEFPOINTS
 62
     0
 10
51.0934049520571421
 20
73.4325332283589063
 30
0.0
  0
POINT
  5
2647E
  8
DEFPOINTS
 62
     0
 10
47.2475431307772666
 20
73.4325332283589063
 30
0.0
  0
ENDBLK
  5
2644E
  8
0
  0
BLOCK
  8
0
  2
*D40
 70
     1
 10
0.0
 20
0.0
 30
0.0
  3
*D40
  1

  0
LINE
  5
2647F
  8
寸法
 62
     2
 10
49.0934049520571421
 20
73.4325332283589063
 30
0.0
 11
47.2475431307772666
 21
73.4325332283589063
 31
0.0
  0
LINE
  5
26480
  8
寸法
 62
     2
 10
49.0934049520571492
 20
71.2325332283589034
 30
0.0
 11
47.2475431307772666
 21
71.2325332283589034
 31
0.0
  0
LINE
  5
26481
  8
寸法
 62
     2
 10
47.2475431307772666
 20
73.0325332283589006
 30
0.0
 11
47.2475431307772666
 21
71.6325332283589091
 31
0.0
  0
INSERT
  5
26482
  8
寸法
 62
     2
  2
_DOT
 10
47.2475431307772666
 20
73.4325332283589063
 30
0.0
 41
0.4
 42
0.4
 43
0.4
 50
90.0
  0
INSERT
  5
26483
  8
寸法
 62
     2
  2
_DOT
 10
47.2475431307772666
 20
71.2325332283589034
 30
0.0
 41
0.4
 42
0.4
 43
0.4
 50
270.0
  0
INSERT
  5
26484
  8
寸法
  2
*U60
 10
0.0
 20
0.0
 30
0.0
  0
POINT
  5
26485
  8
DEFPOINTS
 62
     0
 10
51.0934049520571492
 20
73.4325332283589063
 30
0.0
  0
POINT
  5
26486
  8
DEFPOINTS
 62
     0
 10
51.0934049520571492
 20
71.2325332283589034
 30
0.0
  0
POINT
  5
26487
  8
DEFPOINTS
 62
     0
 10
47.2475431307772666
 20
71.2325332283589034
 30
0.0
  0
ENDBLK
  5
2645A
  8
0
  0
BLOCK
  8
0
  2
*D41
 70
     1
 10
0.0
 20
0.0
 30
0.0
  3
*D41
  1

  0
LINE
  5
26495
  8
寸法
 62
     2
 10
49.0934049520571492
 20
63.032533228358858
 30
0.0
 11
47.2475431307773377
 21
63.0325332283588509
 31
0.0
  0
LINE
  5
26496
  8
寸法
 62
     2
 10
49.0934049520571492
 20
57.0325332283588722
 30
0.0
 11
47.2475431307773377
 21
57.032533228358858
 31
0.0
  0
LINE
  5
26497
  8
寸法
 62
     2
 10
47.2475431307773377
 20
62.6325332283588594
 30
0.0
 11
47.2475431307773377
 21
57.4325332283588565
 31
0.0
  0
INSERT
  5
26498
  8
寸法
 62
     2
  2
_DOT
 10
47.2475431307773377
 20
63.0325332283588509
 30
0.0
 41
0.4
 42
0.4
 43
0.4
 50
90.0
  0
INSERT
  5
26499
  8
寸法
 62
     2
  2
_DOT
 10
47.2475431307773377
 20
57.032533228358858
 30
0.0
 41
0.4
 42
0.4
 43
0.4
 50
270.0
  0
INSERT
  5
2649A
  8
寸法
  2
*U61
 10
0.0
 20
0.0
 30
0.0
  0
POINT
  5
2649B
  8
DEFPOINTS
 62
     0
 10
51.0934049520571492
 20
63.032533228358858
 30
0.0
  0
POINT
  5
2649C
  8
DEFPOINTS
 62
     0
 10
51.0934049520571492
 20
57.0325332283588722
 30
0.0
  0
POINT
  5
2649D
  8
DEFPOINTS
 62
     0
 10
47.2475431307773377
 20
57.032533228358858
 30
0.0
  0
ENDBLK
  5
2648B
  8
0
  0
BLOCK
  8
0
  2
*D42
 70
     1
 10
0.0
 20
0.0
 30
0.0
  3
*D42
  1

  0
LINE
  5
266BD
  8
寸法
 62
     2
 10
50.7705582604604828
 20
113.2325332283589034
 30
0.0
 11
40.3392340026662524
 21
113.2325332283589034
 31
0.0
  0
LINE
  5
266BE
  8
寸法
 62
     2
 10
50.7705582604604828
 20
53.2325332283589532
 30
0.0
 11
40.3392340026662666
 21
53.232533228358939
 31
0.0
  0
LINE
  5
266BF
  8
寸法
 62
     2
 10
40.3392340026662524
 20
112.8325332283588978
 30
0.0
 11
40.3392340026662666
 21
53.6325332283589375
 31
0.0
  0
INSERT
  5
266C0
  8
寸法
 62
     2
  2
_DOT
 10
40.3392340026662524
 20
113.2325332283589034
 30
0.0
 41
0.4
 42
0.4
 43
0.4
 50
90.0
  0
INSERT
  5
266C1
  8
寸法
 62
     2
  2
_DOT
 10
40.3392340026662666
 20
53.232533228358939
 30
0.0
 41
0.4
 42
0.4
 43
0.4
 50
270.0
  0
INSERT
  5
266C2
  8
寸法
  2
*U75
 10
0.0
 20
0.0
 30
0.0
  0
POINT
  5
266C3
  8
DEFPOINTS
 62
     0
 10
52.7705582604604899
 20
113.2325332283589034
 30
0.0
  0
POINT
  5
266C4
  8
DEFPOINTS
 62
     0
 10
52.7705582604604899
 20
53.2325332283589532
 30
0.0
  0
POINT
  5
266C5
  8
DEFPOINTS
 62
     0
 10
40.3392340026662666
 20
53.232533228358939
 30
0.0
  0
ENDBLK
  5
26660
  8
0
  0
BLOCK
  8
0
  2
*U43
 70
     1
 10
0.0
 20
0.0
 30
0.0
  3
*U43
  1

  0
TEXT
  5
26AE8
  8
寸法
 62
     2
 10
33.9542293176335335
 20
161.6944143987024916
 30
0.0
 40
2.399999999999999
  1
7
  7
角ゴ
  0
ENDBLK
  5
26AEA
  8
0
  0
BLOCK
  8
0
  2
*U44
 70
     1
 10
0.0
 20
0.0
 30
0.0
  3
*U44
  1

  0
TEXT
  5
26AEC
  8
寸法
 62
     2
 10
25.4042458905620308
 20
169.1731153648545103
 30
0.0
 40
2.399999999999999
  1
15
 50
90.0
  7
角ゴ
  0
ENDBLK
  5
26AEE
  8
0
  0
BLOCK
  8
0
  2
*U45
 70
     1
 10
0.0
 20
0.0
 30
0.0
  3
*U45
  1

  0
TEXT
  5
26AF0
  8
寸法
 62
     2
 10
111.8542308905569058
 20
161.6944143987024916
 30
0.0
 40
2.399999999999999
  1
7
  7
角ゴ
  0
ENDBLK
  5
26AF2
  8
0
  0
BLOCK
  8
0
  2
*U46
 70
     1
 10
0.0
 20
0.0
 30
0.0
  3
*U46
  1

  0
TEXT
  5
26AF4
  8
寸法
 62
     2
 10
205.1600660982250872
 20
99.821793795351752
 30
0.0
 40
2.399999999999999
  1
60
 50
90.0
  0
ENDBLK
  5
26AF6
  8
0
  0
BLOCK
  8
0
  2
*U47
 70
     1
 10
0.0
 20
0.0
 30
0.0
  3
*U47
  1

  0
TEXT
  5
26AF8
  8
寸法
 62
     2
 10
205.1600660982253999
 20
85.9578147863081767
 30
0.0
 40
2.399999999999999
  1
22
 50
90.0
  0
ENDBLK
  5
26AFA
  8
0
  0
BLOCK
  8
0
  2
*U48
 70
     1
 10
0.0
 20
0.0
 30
0.0
  3
*U48
  1

  0
TEXT
  5
26AFC
  8
寸法
 62
     2
 10
205.1600660982259114
 20
72.4448806605077493
 30
0.0
 40
2.399999999999999
  1
60
 50
90.0
  0
ENDBLK
  5
26AFE
  8
0
  0
BLOCK
  8
0
  2
*U49
 70
     1
 10
0.0
 20
0.0
 30
0.0
  3
*U49
  1

  0
TEXT
  5
26B00
  8
寸法
 62
     2
 10
205.1600660982261957
 20
55.8627975175970803
 30
0.0
 40
2.399999999999999
  1
38
 50
90.0
  0
ENDBLK
  5
26B02
  8
0
  0
BLOCK
  8
0
  2
*U50
 70
     1
 10
0.0
 20
0.0
 30
0.0
  3
*U50
  1

  0
TEXT
  5
26B04
  8
寸法
 62
     2
 10
49.0455582604604174
 20
35.8894008217728526
 30
0.0
 40
2.399999999999999
  1
7
  0
ENDBLK
  5
26B06
  8
0
  0
BLOCK
  8
0
  2
*U51
 70
     1
 10
0.0
 20
0.0
 30
0.0
  3
*U51
  1

  0
TEXT
  5
26B08
  8
寸法
 62
     2
 10
71.7705582604604615
 20
35.8894008217728526
 30
0.0
 40
2.399999999999999
  1
440
  0
ENDBLK
  5
26B0A
  8
0
  0
BLOCK
  8
0
  2
*U52
 70
     1
 10
0.0
 20
0.0
 30
0.0
  3
*U52
  1

  0
TEXT
  5
26B0C
  8
寸法
 62
     2
 10
98.8955582604605041
 20
35.8894008217728526
 30
0.0
 40
2.399999999999999
  1
7
  0
ENDBLK
  5
26B0E
  8
0
  0
BLOCK
  8
0
  2
*U53
 70
     1
 10
0.0
 20
0.0
 30
0.0
  3
*U53
  1

  0
TEXT
  5
26B10
  8
寸法
 62
     2
 10
46.6225431307773022
 20
79.0325332283588864
 30
0.0
 40
1.8
  1
22
 50
90.0
  0
ENDBLK
  5
26B12
  8
0
  0
BLOCK
  8
0
  2
*U54
 70
     1
 10
0.0
 20
0.0
 30
0.0
  3
*U54
  1

  0
TEXT
  5
26B14
  8
寸法
 62
     2
 10
46.6225431307772809
 20
83.2825332283588864
 30
0.0
 40
1.8
  1
60
 50
90.0
  0
ENDBLK
  5
26B16
  8
0
  0
BLOCK
  8
0
  2
*U55
 70
     1
 10
0.0
 20
0.0
 30
0.0
  3
*U55
  1

  0
TEXT
  5
26B18
  8
寸法
 62
     2
 10
46.6225431307772666
 20
87.2325332283589034
 30
0.0
 40
1.8
  1
22
 50
90.0
  0
ENDBLK
  5
26B1A
  8
0
  0
BLOCK
  8
0
  2
*U56
 70
     1
 10
0.0
 20
0.0
 30
0.0
  3
*U56
  1

  0
TEXT
  5
26B1C
  8
寸法
 62
     2
 10
46.6225431307772524
 20
91.4825332283588892
 30
0.0
 40
1.8
  1
60
 50
90.0
  0
ENDBLK
  5
26B1E
  8
0
  0
BLOCK
  8
0
  2
*U57
 70
     1
 10
0.0
 20
0.0
 30
0.0
  3
*U57
  1

  0
TEXT
  5
26B20
  8
寸法
 62
     2
 10
46.6225431307773093
 20
66.8825332283588665
 30
0.0
 40
1.8
  1
60
 50
90.0
  0
ENDBLK
  5
26B22
  8
0
  0
BLOCK
  8
0
  2
*U58
 70
     1
 10
0.0
 20
0.0
 30
0.0
  3
*U58
  1

  0
TEXT
  5
26B24
  8
寸法
 62
     2
 10
46.6225431307773093
 20
62.6325332283588523
 30
0.0
 40
1.8
  1
22
 50
90.0
  0
ENDBLK
  5
26B26
  8
0
  0
BLOCK
  8
0
  2
*U59
 70
     1
 10
0.0
 20
0.0
 30
0.0
  3
*U59
  1

  0
TEXT
  5
26B28
  8
寸法
 62
     2
 10
46.6225431307772809
 20
75.0825332283588835
 30
0.0
 40
1.8
  1
60
 50
90.0
  0
ENDBLK
  5
26B2A
  8
0
  0
BLOCK
  8
0
  2
*U60
 70
     1
 10
0.0
 20
0.0
 30
0.0
  3
*U60
  1

  0
TEXT
  5
26B2C
  8
寸法
 62
     2
 10
46.6225431307772809
 20
70.8325332283588551
 30
0.0
 40
1.8
  1
22
 50
90.0
  0
ENDBLK
  5
26B2E
  8
0
  0
BLOCK
  8
0
  2
*U61
 70
     1
 10
0.0
 20
0.0
 30
0.0
  3
*U61
  1

  0
TEXT
  5
26B30
  8
寸法
 62
     2
 10
46.622543130777359
 20
58.6825332283588281
 30
0.0
 40
1.8
  1
60
 50
90.0
  0
ENDBLK
  5
26B32
  8
0
  0
BLOCK
  8
0
  2
*U62
 70
     1
 10
0.0
 20
0.0
 30
0.0
  3
*U62
  1

  0
TEXT
  5
26B34
  8
寸法
 62
     2
 10
46.6225431307773519
 20
53.6325332283588878
 30
0.0
 40
1.8
  1
38
 50
90.0
  0
ENDBLK
  5
26B36
  8
0
  0
BLOCK
  8
0
  2
*U63
 70
     1
 10
0.0
 20
0.0
 30
0.0
  3
*U63
  1

  0
TEXT
  5
26B38
  8
寸法
 62
     2
 10
83.9205582604604814
 20
44.3633101168616335
 30
0.0
 40
1.8
  1
170
  0
ENDBLK
  5
26B3A
  8
0
  0
BLOCK
  8
0
  2
*U64
 70
     1
 10
0.0
 20
0.0
 30
0.0
  3
*U64
  1

  0
TEXT
  5
26B3C
  8
寸法
 62
     2
 10
75.2705582604604757
 20
44.3053646035087283
 30
0.0
 40
1.8
  1
18
  0
ENDBLK
  5
26B3E
  8
0
  0
BLOCK
  8
0
  2
*U65
 70
     1
 10
0.0
 20
0.0
 30
0.0
  3
*U65
  1

  0
TEXT
  5
26B40
  8
寸法
 62
     2
 10
65.1205582604604842
 20
44.3633101168616335
 30
0.0
 40
1.8
  1
170
  0
ENDBLK
  5
26B42
  8
0
  0
BLOCK
  8
0
  2
*U66
 70
     1
 10
0.0
 20
0.0
 30
0.0
  3
*U66
  1

  0
TEXT
  5
26B44
  8
寸法
 62
     2
 10
54.1705582604604672
 20
44.3633101168616193
 30
0.0
 40
1.8
  1
58
  0
ENDBLK
  5
26B46
  8
0
  0
BLOCK
  8
0
  2
*U67
 70
     1
 10
0.0
 20
0.0
 30
0.0
  3
*U67
  1

  0
TEXT
  5
26B48
  8
本体1
 62
     2
 10
94.0705582604604729
 20
44.3633101168616335
 30
0.0
 40
1.8
  1
24
  0
ENDBLK
  5
26B4A
  8
0
  0
BLOCK
  8
0
  2
*U68
 70
     1
 10
0.0
 20
0.0
 30
0.0
  3
*U68
  1

  0
TEXT
  5
26B4C
  8
寸法
 62
     2
 10
115.0259219472005014
 20
65.741858214639592
 30
0.0
 40
2.399999999999999
  1
60
 50
90.0
  0
ENDBLK
  5
26B4E
  8
0
  0
BLOCK
  8
0
  2
*U69
 70
     1
 10
0.0
 20
0.0
 30
0.0
  3
*U69
  1

  0
TEXT
  5
26B50
  8
寸法
 62
     2
 10
146.5415760347509888
 20
48.2708701368438611
 30
0.0
 40
2.399999999999999
  1
170
  0
ENDBLK
  5
26B52
  8
0
  0
BLOCK
  8
0
  2
*U70
 70
     1
 10
0.0
 20
0.0
 30
0.0
  3
*U70
  1

  0
TEXT
  5
26B54
  8
寸法
 62
     2
 10
70.704214317633955
 20
161.6944143987024916
 30
0.0
 40
2.399999999999999
  1
440
  7
角ゴ
  0
ENDBLK
  5
26B56
  8
0
  0
BLOCK
  8
0
  2
*U71
 70
     1
 10
0.0
 20
0.0
 30
0.0
  3
*U71
  1

  0
TEXT
  5
26B58
  8
寸法
 62
     2
 10
70.5042458905558505
 20
157.3127017034493917
 30
0.0
 40
2.399999999999999
  1
454
  7
角ゴ
  0
ENDBLK
  5
26B5A
  8
0
  0
BLOCK
  8
0
  2
*U72
 70
     1
 10
0.0
 20
0.0
 30
0.0
  3
*U72
  1

  0
TEXT
  5
26B5C
  8
寸法
 62
     2
 10
46.6225431307772169
 20
97.5325332283589148
 30
0.0
 40
1.8
  1
64
 50
90.0
  0
ENDBLK
  5
26B5E
  8
0
  0
BLOCK
  8
0
  2
*U73
 70
     1
 10
0.0
 20
0.0
 30
0.0
  3
*U73
  1

  0
TEXT
  5
26B60
  8
寸法
 62
     2
 10
46.6225431307772595
 20
104.5825332283588978
 30
0.0
 40
1.5
  1
72
 50
90.0
  0
ENDBLK
  5
26B62
  8
0
  0
BLOCK
  8
0
  2
*U74
 70
     1
 10
0.0
 20
0.0
 30
0.0
  3
*U74
  1

  0
TEXT
  5
26B64
  8
寸法
 62
     2
 10
46.6225431307776006
 20
110.0825332283588978
 30
0.0
 40
1.5
  1
38
 50
90.0
  0
ENDBLK
  5
26B66
  8
0
  0
BLOCK
  8
0
  2
*U75
 70
     1
 10
0.0
 20
0.0
 30
0.0
  3
*U75
  1

  0
TEXT
  5
26B68
  8
寸法
 62
     2
 10
39.7142340026662808
 20
80.4325332283589347
 30
0.0
 40
2.399999999999999
  1
600
 50
90.0
  0
ENDBLK
  5
26B6A
  8
0
  0
BLOCK
  8
0
  2
*U76
 70
     1
 10
0.0
 20
0.0
 30
0.0
  3
*U76
  1

  0
TEXT
  5
26B6C
  8
寸法
 62
     2
 10
197.7029760561507032
 20
107.7804122625341989
 30
0.0
 40
2.399999999999999
  1
600
 50
90.0
  0
ENDBLK
  5
26B6E
  8
0
  0
BLOCK
  8
0
  2
*U77
 70
     1
 10
0.0
 20
0.0
 30
0.0
  3
*U77
  1

  0
TEXT
  5
26B70
  8
寸法
 62
     2
 10
205.1600660982246893
 20
161.2884604620184064
 30
0.0
 40
2.399999999999999
  1
38
 50
90.0
  0
ENDBLK
  5
26B72
  8
0
  0
BLOCK
  8
0
  2
*U78
 70
     1
 10
0.0
 20
0.0
 30
0.0
  3
*U78
  1

  0
TEXT
  5
26B74
  8
寸法
 62
     2
 10
205.160066098224604
 20
142.9569001909638928
 30
0.0
 40
2.399999999999999
  1
72
 50
90.0
  0
ENDBLK
  5
26B76
  8
0
  0
BLOCK
  8
0
  2
*U79
 70
     1
 10
0.0
 20
0.0
 30
0.0
  3
*U79
  1

  0
TEXT
  5
26B78
  8
寸法
 62
     2
 10
205.1600660982248883
 20
120.2904206303959
 30
0.0
 40
2.399999999999999
  1
64
 50
90.0
  0
ENDBLK
  5
26B7A
  8
0
  0
ENDSEC
  0
SECTION
  2
ENTITIES
  0
LINE
  5
22B0E
  8
本体1
 10
211.3196043077138881
 20
156.9551271286852057
 30
0.0
 11
212.8210060060677051
 21
156.9551271286852057
 31
0.0
  0
LINE
  5
22B0F
  8
本体1
 10
211.3196043077138881
 20
169.621793795351806
 30
0.0
 11
212.8271886300530014
 21
169.621793795351806
 31
0.0
  0
LINE
  5
22B10
  8
本体1
 10
212.8271886300530014
 20
169.621793795351806
 30
0.0
 11
210.5605219633864067
 21
169.621793795351806
 31
0.0
  0
ARC
  5
22B11
  8
本体1
 10
210.5605219633864067
 20
169.5551271286850863
 30
0.0
 40
0.0666666666666667
 50
90.0
 51
180.0
  0
LINE
  5
22B12
  8
本体1
 10
212.8271886300530014
 20
169.2884604620184916
 30
0.0
 11
210.8271886300530014
 21
169.2884604620184916
 31
0.0
  0
LINE
  5
22B13
  8
本体1
 10
210.493855296719687
 20
169.5551271286850863
 30
0.0
 11
210.493855296719687
 21
157.0217937953518117
 31
0.0
  0
ARC
  5
22B14
  8
本体1
 10
210.5605219633864067
 20
157.0217937953518117
 30
0.0
 40
0.0666666666666667
 50
180.0
 51
270.0
  0
LINE
  5
22B15
  8
本体1
 10
210.8271886300530014
 20
169.2884604620184916
 30
0.0
 11
210.8271886300530014
 21
157.2884604620184916
 31
0.0
  0
LINE
  5
22B16
  8
本体1
 10
210.5605219633864067
 20
156.9551271286852057
 30
0.0
 11
212.8210060060677051
 21
156.9551271286852057
 31
0.0
  0
LINE
  5
22B17
  8
本体1
 10
210.8271886300530014
 20
157.2884604620184916
 30
0.0
 11
212.8210060060677051
 21
157.2884604620184916
 31
0.0
  0
LINE
  5
22B18
  8
本体1
 10
212.8270168904977879
 20
169.621793795351806
 30
0.0
 11
212.8271886300071003
 21
169.6217937062999965
 31
0.0
  0
LINE
  5
22B19
  8
本体2
 62
     7
 10
211.3151668611926084
 20
132.955127128685092
 30
0.0
 11
212.3151668611924947
 21
132.955127128685092
 31
0.0
  0
LINE
  5
22B1A
  8
本体2
 62
     7
 10
212.3151668611924947
 20
132.955127128685092
 30
0.0
 11
212.3151668611924947
 21
156.9551271286852057
 31
0.0
  0
LINE
  5
22B1B
  8
本体2
 62
     7
 10
212.3151668611924947
 20
156.9551271286852057
 30
0.0
 11
211.3151668611926084
 21
156.9551271286852057
 31
0.0
  0
LINE
  5
22B1C
  8
本体2
 62
     7
 10
211.3151668611926084
 20
156.9551271286852057
 30
0.0
 11
211.3151668611926084
 21
132.955127128685092
 31
0.0
  0
LINE
  5
22B1D
  8
本体2
 62
     7
 10
212.3151668611924947
 20
144.2884604620184916
 30
0.0
 11
212.3151668611924947
 21
149.2884604620184916
 31
0.0
  0
LINE
  5
22B1E
  8
本体2
 62
     7
 10
212.3151668611924947
 20
149.2884604620184916
 30
0.0
 11
212.3151668611924947
 21
139.2884604620184916
 31
0.0
  0
LINE
  5
22B1F
  8
本体2
 62
     7
 10
212.3151668611924947
 20
139.2884604620184916
 30
0.0
 11
212.8151668611926084
 21
139.2884604620184916
 31
0.0
  0
LINE
  5
22B21
  8
本体2
 62
     7
 10
212.8151668611926084
 20
149.2884604620184916
 30
0.0
 11
212.3151668611924947
 21
149.2884604620184916
 31
0.0
  0
LINE
  5
22B50
  8
本体2
  6
CONTINUOUS
 10
210.7253564944456912
 20
132.1022882035956911
 30
0.0
 11
210.7085501213688872
 21
124.5985061239004068
 31
0.0
  0
ARC
  5
22B51
  8
本体2
  6
CONTINUOUS
 10
212.1389750400130936
 20
124.528635538289393
 30
0.0
 40
0.0666666666666667
 50
359.8716736938957865
 51
89.8716736939023804
  0
ARC
  5
22B52
  8
本体2
  6
CONTINUOUS
 10
212.1383777827633992
 20
124.2619695404665947
 30
0.0
 40
0.0666666666666667
 50
269.8716736939023235
 51
359.8716736938957865
  0
LINE
  5
22B53
  8
本体2
  6
CONTINUOUS
 10
212.2056415394688997
 20
124.5284862239769978
 30
0.0
 11
212.2050442822194043
 21
124.2618202261541995
 31
0.0
  0
ARC
  5
22B54
  8
本体2
  6
CONTINUOUS
 10
210.4315262774198914
 20
124.2577168612819065
 30
0.0
 40
0.0586865436604158
 50
229.9431644799149126
 51
273.1391678669530734
  0
LINE
  5
22B55
  8
本体2
  6
CONTINUOUS
 10
210.7085501213688872
 20
124.5985061239004068
 30
0.0
 11
212.1391243543253893
 21
124.5953020377451992
 31
0.0
  0
LINE
  5
22B56
  8
本体2
  6
CONTINUOUS
 10
210.4347400351923056
 20
124.1991183786415007
 30
0.0
 11
212.1382284684511035
 21
124.1953030410107033
 31
0.0
  0
LINE
  5
22B57
  8
本体2
  6
CONTINUOUS
 10
211.8935641762705018
 20
132.789020808717197
 30
0.0
 11
211.8937881477390874
 21
132.8890205579008921
 31
0.0
  0
LINE
  5
22B58
  8
本体2
  6
CONTINUOUS
 10
212.3925870190151954
 20
132.3521754852573906
 30
0.0
 11
212.3937868936569942
 21
132.8879007005579922
 31
0.0
  0
ARC
  5
22B59
  8
本体2
  6
CONTINUOUS
 10
212.3271203942007048
 20
132.8880500148702879
 30
0.0
 40
0.0666666666666667
 50
359.8716736938957865
 51
89.8716736939023804
  0
LINE
  5
22B5A
  8
本体2
  6
CONTINUOUS
 10
211.9606039615065072
 20
132.9555377430442036
 30
0.0
 11
212.3272697085131995
 21
132.9547165143260088
 31
0.0
  0
ARC
  5
22B5B
  8
本体2
  6
CONTINUOUS
 10
211.9604546471942115
 20
132.8888712435885111
 30
0.0
 40
0.0666666666666667
 50
89.8716736939023804
 51
179.8716736938991119
  0
LINE
  5
22B5C
  8
本体2
  6
CONTINUOUS
 10
211.5602316789913004
 20
132.7897673802791871
 30
0.0
 11
211.5604556504598861
 21
132.8897671294629106
 31
0.0
  0
ARC
  5
22B5D
  8
本体2
  6
CONTINUOUS
 10
211.4937891510041084
 20
132.8899164437752063
 30
0.0
 40
0.0666666666666667
 50
359.8716736938957865
 51
89.8716736939023804
  0
LINE
  5
22B5E
  8
本体2
  6
CONTINUOUS
 10
211.5602316789913004
 20
132.7897673802791871
 30
0.0
 11
211.8935641762705018
 21
132.789020808717197
 31
0.0
  0
LINE
  5
22B5F
  8
本体2
  6
CONTINUOUS
 10
210.7271244072632044
 20
132.8916335583678006
 30
0.0
 11
210.7269004357945903
 21
132.7916338091841055
 31
0.0
  0
LINE
  5
22B60
  8
本体2
  6
CONTINUOUS
 10
211.0602329330733085
 20
132.7908872376222007
 30
0.0
 11
211.0604569045418941
 21
132.8908869868058105
 31
0.0
  0
LINE
  5
22B61
  8
本体2
  6
CONTINUOUS
 10
210.7269004357945903
 20
132.7916338091841055
 30
0.0
 11
211.0602329330733085
 21
132.7908872376222007
 31
0.0
  0
LINE
  5
22B62
  8
本体2
  6
CONTINUOUS
 10
210.392970681267002
 20
132.5257143829230984
 30
0.0
 11
210.392970681267002
 21
132.5257143829230984
 31
0.0
  0
ARC
  5
22B63
  8
本体2
  6
CONTINUOUS
 10
210.1264539977559025
 20
132.5929781396285989
 30
0.0
 40
0.0666666666666667
 50
179.8716736938991119
 51
269.8716736939023235
  0
LINE
  5
22B64
  8
本体2
  6
CONTINUOUS
 10
210.0597874983000963
 20
132.5931274539408946
 30
0.0
 11
210.0598621554563863
 21
132.6264607036688119
 31
0.0
  0
LINE
  5
22B65
  8
本体2
  6
CONTINUOUS
 10
210.1263046834434078
 20
132.5263116401727075
 30
0.0
 11
210.392970681267002
 21
132.5257143829230984
 31
0.0
  0
ARC
  5
22B66
  8
本体2
  6
CONTINUOUS
 10
210.6604579078075972
 20
132.8917828726800963
 30
0.0
 40
0.0666666666666667
 50
359.8716736938957865
 51
89.8716736939023804
  0
LINE
  5
22B67
  8
本体2
  6
CONTINUOUS
 10
210.3939412242976061
 20
132.9590466293855116
 30
0.0
 11
210.6606072221198929
 21
132.9584493721357887
 31
0.0
  0
ARC
  5
22B68
  8
本体2
  6
CONTINUOUS
 10
211.1271234039975013
 20
132.8907376724934863
 30
0.0
 40
0.0666666666666667
 50
89.8716736939023804
 51
179.8716736938991119
  0
ARC
  5
22B69
  8
本体2
  6
CONTINUOUS
 10
210.3931946527355876
 20
132.6257141321067934
 30
0.0
 40
0.3333333333333333
 50
89.8716736939023804
 51
179.8716736938991119
  0
LINE
  5
22B6A
  8
本体2
  6
CONTINUOUS
 10
211.1272727183099107
 20
132.9574041719490936
 30
0.0
 11
211.4939384653164893
 21
132.9565829432308988
 31
0.0
  0
ARC
  5
22B6B
  8
本体2
  6
CONTINUOUS
 10
212.3259205195589914
 20
132.3523247995698
 30
0.0
 40
0.0666666666666667
 50
299.8716736938928875
 51
359.8716736938957865
  0
LINE
  5
22B6C
  8
本体2
  6
CONTINUOUS
 10
212.1083624174430895
 20
132.1504856099616916
 30
0.0
 11
212.3591244592990108
 21
132.2945152603039105
 31
0.0
  0
ARC
  5
22B6D
  8
本体2
  6
CONTINUOUS
 10
212.0751584777027006
 20
132.2082951492284053
 30
0.0
 40
0.0666666666666667
 50
220.4435201717504924
 51
299.8716736938928875
  0
ARC
  5
22B6E
  8
本体2
  6
CONTINUOUS
 10
210.7920229939014121
 20
132.1021388892833954
 30
0.0
 40
0.0666666666666667
 50
141.4631369750721888
 51
179.8716736938991119
  0
ARC
  5
22B70
  8
本体2
  6
CONTINUOUS
 10
211.3909560573719091
 20
131.625096541348114
 30
0.0
 40
0.8323625699103494
 50
40.4435201717505279
 51
141.4631369750721888
  0
LINE
  5
22B79
  8
本体2
 10
210.392970681267002
 20
132.5257143829230984
 30
0.0
 11
210.3937587175034878
 21
124.2127978026902042
 31
0.0
  0
LINE
  5
22B7A
  8
PL1
 10
210.392970681267002
 20
132.5257143829230984
 30
0.0
 11
210.0596373479336023
 21
132.5257143829230984
 31
0.0
  0
LINE
  5
22B7B
  8
PL1
 10
210.0596373479336023
 20
132.5257143829230984
 30
0.0
 11
210.0502230166960942
 21
108.9578202199965062
 31
0.0
  0
LINE
  5
22B7C
  8
PL1
 10
210.392970681267002
 20
132.5257143829230984
 30
0.0
 11
210.392970681267002
 21
111.6217937953517065
 31
0.0
  0
LINE
  5
22B7D
  8
PL2
 10
212.8270168904977879
 20
132.1107290602764976
 30
0.0
 11
212.8270168904977879
 21
108.9578202199965062
 31
0.0
  0
LINE
  5
22B7E
  8
PL2
 10
213.8270168904977879
 20
132.955127128685092
 30
0.0
 11
213.8270168904977879
 21
108.9578202199965062
 31
0.0
  0
LINE
  5
22B7F
  8
壁
 10
214.8270168904977879
 20
183.6833452172026
 30
0.0
 11
214.8270168904977879
 21
108.9578202199965062
 31
0.0
  0
LINE
  5
22B80
  8
本体2
  6
CONTINUOUS
 10
210.7253564944456912
 20
52.383964231078572
 30
0.0
 11
210.7085501213688872
 21
59.8877463107738919
 31
0.0
  0
ARC
  5
22B81
  8
本体2
  6
CONTINUOUS
 10
212.1389750400130936
 20
59.9576168963848914
 30
0.0
 40
0.0666666666666667
 50
270.1283263060976196
 51
0.1283263061008806
  0
ARC
  5
22B82
  8
本体2
  6
CONTINUOUS
 10
212.1383777827633992
 20
60.2242828942077182
 30
0.0
 40
0.0666666666666667
 50
0.1283263061008806
 51
90.1283263060976338
  0
LINE
  5
22B83
  8
本体2
  6
CONTINUOUS
 10
212.2056415394688997
 20
59.9577662106973008
 30
0.0
 11
212.2050442822194043
 21
60.2244322085201276
 31
0.0
  0
ARC
  5
22B84
  8
本体2
  6
CONTINUOUS
 10
210.4315262774198914
 20
60.2285355733923922
 30
0.0
 40
0.0586865436604158
 50
86.8608321330468414
 51
130.0568355200850021
  0
LINE
  5
22B85
  8
本体2
  6
CONTINUOUS
 10
210.7085501213688872
 20
59.8877463107738919
 30
0.0
 11
212.1391243543253893
 21
59.8909503969291066
 31
0.0
  0
LINE
  5
22B86
  8
本体2
  6
CONTINUOUS
 10
210.4347400351923056
 20
60.2871340560328335
 30
0.0
 11
212.1382284684511035
 21
60.2909493936635528
 31
0.0
  0
LINE
  5
22B87
  8
本体2
  6
CONTINUOUS
 10
211.8935641762705018
 20
51.6972316259570022
 30
0.0
 11
211.8937881477390874
 21
51.5972318767733924
 31
0.0
  0
LINE
  5
22B88
  8
本体2
  6
CONTINUOUS
 10
212.3925870190151954
 20
52.1340769494168583
 30
0.0
 11
212.3937868936569942
 21
51.5983517341163207
 31
0.0
  0
ARC
  5
22B89
  8
本体2
  6
CONTINUOUS
 10
212.3271203942007048
 20
51.5982024198039113
 30
0.0
 40
0.0666666666666667
 50
270.1283263060976196
 51
0.1283263061008806
  0
LINE
  5
22B8A
  8
本体2
  6
CONTINUOUS
 10
211.9606039615065072
 20
51.5307146916300809
 30
0.0
 11
212.3272697085131995
 21
51.5315359203482473
 31
0.0
  0
ARC
  5
22B8B
  8
本体2
  6
CONTINUOUS
 10
211.9604546471942115
 20
51.5973811910857378
 30
0.0
 40
0.0666666666666667
 50
180.1283263061008029
 51
270.1283263060976196
  0
LINE
  5
22B8C
  8
本体2
  6
CONTINUOUS
 10
211.5602316789913004
 20
51.6964850543950689
 30
0.0
 11
211.5604556504598861
 21
51.5964853052114023
 31
0.0
  0
ARC
  5
22B8D
  8
本体2
  6
CONTINUOUS
 10
211.4937891510041084
 20
51.5963359908989929
 30
0.0
 40
0.0666666666666667
 50
270.1283263060976196
 51
0.1283263061008806
  0
LINE
  5
22B8E
  8
本体2
  6
CONTINUOUS
 10
211.5602316789913004
 20
51.6964850543950689
 30
0.0
 11
211.8935641762705018
 21
51.6972316259570022
 31
0.0
  0
LINE
  5
22B8F
  8
本体2
  6
CONTINUOUS
 10
210.7271244072632044
 20
51.5946188763064768
 30
0.0
 11
210.7269004357945903
 21
51.6946186254901505
 31
0.0
  0
LINE
  5
22B90
  8
本体2
  6
CONTINUOUS
 10
211.0602329330733085
 20
51.6953651970521406
 30
0.0
 11
211.0604569045418941
 21
51.5953654478684669
 31
0.0
  0
LINE
  5
22B91
  8
本体2
  6
CONTINUOUS
 10
210.7269004357945903
 20
51.6946186254901505
 30
0.0
 11
211.0602329330733085
 21
51.6953651970521406
 31
0.0
  0
LINE
  5
22B92
  8
本体2
  6
CONTINUOUS
 10
210.392970681267002
 20
51.9605380517511506
 30
0.0
 11
210.392970681267002
 21
51.9605380517511506
 31
0.0
  0
ARC
  5
22B93
  8
本体2
  6
CONTINUOUS
 10
210.1264539977559025
 20
51.8932742950457921
 30
0.0
 40
0.0666666666666667
 50
90.1283263060976338
 51
180.1283263061008029
  0
LINE
  5
22B94
  8
本体2
  6
CONTINUOUS
 10
210.0597874983000963
 20
51.8931249807333899
 30
0.0
 11
210.0598621554563863
 21
51.8597917310055507
 31
0.0
  0
LINE
  5
22B95
  8
本体2
  6
CONTINUOUS
 10
210.1263046834434078
 20
51.959940794501577
 30
0.0
 11
210.392970681267002
 21
51.9605380517511506
 31
0.0
  0
ARC
  5
22B96
  8
本体2
  6
CONTINUOUS
 10
210.6604579078075972
 20
51.5944695619941314
 30
0.0
 40
0.0666666666666667
 50
270.1283263060976196
 51
0.1283263061008806
  0
LINE
  5
22B97
  8
本体2
  6
CONTINUOUS
 10
210.3939412242976061
 20
51.5272058052888866
 30
0.0
 11
210.6606072221198929
 21
51.5278030625384673
 31
0.0
  0
ARC
  5
22B98
  8
本体2
  6
CONTINUOUS
 10
211.1271234039975013
 20
51.5955147621808834
 30
0.0
 40
0.0666666666666667
 50
180.1283263061008029
 51
270.1283263060976196
  0
ARC
  5
22B99
  8
本体2
  6
CONTINUOUS
 10
210.3931946527355876
 20
51.8605383025674911
 30
0.0
 40
0.3333333333333333
 50
180.1283263061008029
 51
270.1283263060976196
  0
LINE
  5
22B9A
  8
本体2
  6
CONTINUOUS
 10
211.1272727183099107
 20
51.5288482627252193
 30
0.0
 11
211.4939384653164893
 21
51.5296694914433289
 31
0.0
  0
ARC
  5
22B9B
  8
本体2
  6
CONTINUOUS
 10
212.3259205195589914
 20
52.1339276351044489
 30
0.0
 40
0.0666666666666667
 50
0.1283263061008806
 51
60.1283263061071267
  0
LINE
  5
22B9C
  8
本体2
  6
CONTINUOUS
 10
212.1083624174430895
 20
52.3357668247126213
 30
0.0
 11
212.3591244592990108
 21
52.1917371743703669
 31
0.0
  0
ARC
  5
22B9D
  8
本体2
  6
CONTINUOUS
 10
212.0751584777027006
 20
52.2779572854459573
 30
0.0
 40
0.0666666666666667
 50
60.1283263061071267
 51
139.5564798282495076
  0
ARC
  5
22B9E
  8
本体2
  6
CONTINUOUS
 10
210.7920229939014121
 20
52.3841135453909175
 30
0.0
 40
0.0666666666666667
 50
180.1283263061008029
 51
218.5368630249276976
  0
ARC
  5
22BA0
  8
本体2
  6
CONTINUOUS
 10
211.3909560573719091
 20
52.8611558933261065
 30
0.0
 40
0.8323625699103494
 50
218.5368630249276976
 51
319.5564798282495076
  0
LINE
  5
22BA1
  8
本体2
 10
210.392970681267002
 20
51.9605380517511506
 30
0.0
 11
210.3937587175034878
 21
60.2734546319840803
 31
0.0
  0
LINE
  5
22BA2
  8
PL1
 10
210.392970681267002
 20
51.9605380517511506
 30
0.0
 11
210.0596373479336023
 21
51.9605380517511506
 31
0.0
  0
LINE
  5
22BA3
  8
PL1
 10
210.0596373479336023
 20
51.9605380517511506
 30
0.0
 11
210.0515385907253858
 21
100.9929268815572954
 31
0.0
  0
LINE
  5
22BA5
  8
PL2
 10
212.8270168904977879
 20
52.3755233743978721
 30
0.0
 11
212.8270168904977879
 21
100.4760208354125979
 31
0.0
  0
LINE
  5
22BA6
  8
PL2
 10
212.8270168904977879
 20
52.3755233743978721
 30
0.0
 11
213.8270168904977879
 21
52.3755233743978721
 31
0.0
  0
LINE
  5
22BA7
  8
PL2
 10
213.8270168904977879
 20
52.3755233743978721
 30
0.0
 11
213.8270168904977879
 21
100.9929268815572954
 31
0.0
  0
LINE
  5
22BA8
  8
壁
 10
214.8270168904977879
 20
45.6150016093280399
 30
0.0
 11
214.8270168904977879
 21
100.9929268815572954
 31
0.0
  0
LINE
  5
22BA9
  8
PL2
 10
210.0517678401076864
 20
111.6217937953517065
 30
0.0
 11
210.0517678401076864
 21
101.8262602148905955
 31
0.0
  0
LINE
  5
22BAA
  8
PL2
 10
210.0517678401076864
 20
91.6217937953517776
 30
0.0
 11
210.7184345067744005
 21
91.6217937953517776
 31
0.0
  0
LINE
  5
22BAB
  8
PL2
 10
210.7184345067744005
 20
91.6217937953517776
 30
0.0
 11
210.7184345067744005
 21
100.9929268815572954
 31
0.0
  0
LINE
  5
22BAC
  8
PL2
 10
210.7184345067744005
 20
111.6217937953517065
 30
0.0
 11
210.0517678401076864
 21
111.6217937953517065
 31
0.0
  0
LINE
  5
22BAD
  8
PL2
 10
211.3851011734410861
 20
96.6217937953517776
 30
0.0
 11
211.3851011734410861
 21
100.9929268815572954
 31
0.0
  0
LINE
  5
22BAE
  8
PL2
 10
211.3851011734410861
 20
106.6217937953517065
 30
0.0
 11
210.7184345067744005
 21
106.6217937953517065
 31
0.0
  0
LINE
  5
22BAF
  8
PL2
 10
210.7184345067744005
 20
96.6217937953517776
 30
0.0
 11
211.3851011734410861
 21
96.6217937953517776
 31
0.0
  0
LINE
  5
22BB0
  8
PL2
 10
211.3851011734410861
 20
96.6217937953517776
 30
0.0
 11
211.3851011734410861
 21
96.6217937953517776
 31
0.0
  0
LINE
  5
22BB1
  8
PL2
 10
210.0584559821367066
 20
84.2938357772646043
 30
0.0
 11
210.0584559821367066
 21
64.1959255437509597
 31
0.0
  0
LINE
  5
22BB2
  8
PL2
 10
210.0584559821367066
 20
64.1959255437509597
 30
0.0
 11
210.7251226488033922
 21
64.1959255437509597
 31
0.0
  0
LINE
  5
22BB3
  8
PL2
 10
210.7251226488033922
 20
64.1959255437509597
 30
0.0
 11
210.7251226488033922
 21
84.2938357772646043
 31
0.0
  0
LINE
  5
22BB4
  8
PL2
 10
210.7251226488033922
 20
84.2938357772646043
 30
0.0
 11
210.0584559821367066
 21
84.2938357772646043
 31
0.0
  0
LINE
  5
22BB9
  8
壁
 10
214.8270168904977879
 20
173.4818718830256898
 30
0.0
 11
222.0953374362426871
 21
180.7646665981087892
 31
0.0
  0
LINE
  5
22BBA
  8
壁
 10
214.8270168904977879
 20
178.656386693670612
 30
0.0
 11
222.0953374362426871
 21
185.9391814087549051
 31
0.0
  0
LINE
  5
22BBB
  8
壁
 10
214.8270168904977879
 20
176.0012578750904879
 30
0.0
 11
222.0953374362426871
 21
183.2840525901748094
 31
0.0
  0
LINE
  5
22BBC
  8
壁
 10
214.8270168904977879
 20
173.4818718830256898
 30
0.0
 11
222.0953374362426871
 21
180.7646665981087892
 31
0.0
  0
LINE
  5
22BBD
  8
壁
 10
214.8270168904977879
 20
178.656386693670612
 30
0.0
 11
222.0953374362426871
 21
185.9391814087549051
 31
0.0
  0
LINE
  5
22BBE
  8
壁
 10
214.8270168904977879
 20
176.0012578750904879
 30
0.0
 11
222.0953374362426871
 21
183.2840525901748094
 31
0.0
  0
LINE
  5
22BBF
  8
壁
 10
214.8270168904977879
 20
47.2966596762886482
 30
0.0
 11
222.0953374362426871
 21
54.5794543913717831
 31
0.0
  0
LINE
  5
22BC0
  8
壁
 10
214.8270168904977879
 20
52.4711744869335988
 30
0.0
 11
222.0953374362426871
 21
59.7539692020178705
 31
0.0
  0
LINE
  5
22BC1
  8
壁
 10
214.8270168904977879
 20
49.8160456683534818
 30
0.0
 11
222.0953374362426871
 21
57.0988403834377465
 31
0.0
  0
LINE
  5
22BC2
  8
壁
 10
214.8270168904977879
 20
47.2966596762886482
 30
0.0
 11
222.0953374362426871
 21
54.5794543913717831
 31
0.0
  0
LINE
  5
22BC3
  8
壁
 10
214.8270168904977879
 20
52.4711744869335988
 30
0.0
 11
222.0953374362426871
 21
59.7539692020178705
 31
0.0
  0
LINE
  5
22BC4
  8
壁
 10
214.8270168904977879
 20
49.8160456683534818
 30
0.0
 11
222.0953374362426871
 21
57.0988403834377465
 31
0.0
  0
LINE
  5
22BC5
  8
本体1
 10
212.8270168904977879
 20
169.621793795351806
 30
0.0
 11
212.8268440477781951
 21
169.2884604620184916
 31
0.0
  0
LINE
  5
22BC6
  8
本体1
 10
212.8210060060677051
 20
157.2884604620184916
 30
0.0
 11
212.8210060060677051
 21
156.9551271286852057
 31
0.0
  0
LINE
  5
22BC7
  8
PL2
 10
212.8270168904977879
 20
169.621793795351806
 30
0.0
 11
212.8270168904977879
 21
132.955127128685092
 31
0.0
  0
LINE
  5
22BC8
  8
PL2
 10
213.8270168904979016
 20
169.2884604620184916
 30
0.0
 11
213.8270168904979016
 21
132.955127128685092
 31
0.0
  0
LINE
  5
22BC9
  8
PL2
 10
212.8268440477781951
 20
169.2884604620184916
 30
0.0
 11
213.8270168904979016
 21
169.2884604620184916
 31
0.0
  0
LINE
  5
22BCA
  8
PL2
 10
212.8270168904977879
 20
132.1107290602764976
 30
0.0
 11
212.8270168904977879
 21
132.955127128685092
 31
0.0
  0
LINE
  5
22BCB
  8
ビス類
 10
213.818902969843208
 20
144.9543932232409986
 30
0.0
 11
213.8188639947113074
 21
143.6210562148434065
 31
0.0
  0
LINE
  5
22BCC
  8
ビス類
 10
214.8190254169493016
 20
145.3286179437035912
 30
0.0
 11
214.8190254169493016
 21
143.3275662655995859
 31
0.0
  0
LINE
  5
22BCD
  8
PL9
 10
213.8188835050104046
 20
144.2885024179311984
 30
0.0
 11
213.8188835050104046
 21
149.2885024179311984
 31
0.0
  0
LINE
  5
22BCE
  8
PL9
 10
213.8188835050104046
 20
149.2885024179311984
 30
0.0
 11
214.8188835050104046
 21
149.2885024179311984
 31
0.0
  0
LINE
  5
22BCF
  8
PL9
 10
214.8188835050104046
 20
149.2885024179311984
 30
0.0
 11
214.8188835050104046
 21
139.2885024179311984
 31
0.0
  0
LINE
  5
22BD0
  8
PL9
 10
214.8188835050104046
 20
139.2885024179311984
 30
0.0
 11
213.8188835050104046
 21
139.2885024179311984
 31
0.0
  0
LINE
  5
22BD1
  8
PL9
 10
213.8188835050104046
 20
139.2885024179311984
 30
0.0
 11
213.8270168904979016
 21
144.2884604620184916
 31
0.0
  0
LINE
  5
22BD2
  8
PL9
 10
214.8270168904977879
 20
169.6293673792910965
 30
0.0
 11
209.8270168904977879
 21
169.6293673792910965
 31
0.0
  0
LINE
  5
22BD3
  8
PL9
 10
209.8270168904977879
 20
169.6293673792910965
 30
0.0
 11
209.7909256847335939
 21
101.8262602148905955
 31
0.0
  0
LINE
  5
22BD4
  8
PL9
 10
209.7640208279071032
 20
51.529669491443272
 30
0.0
 11
214.7640208279069896
 21
51.529669491443272
 31
0.0
  0
LINE
  5
22BD5
  8
PL3
 10
210.3851011734410008
 20
111.6217937953517065
 30
0.0
 11
211.3851011734410861
 21
111.6217937953517065
 31
0.0
  0
LINE
  5
22BD6
  8
PL3
 10
211.3851011734410861
 20
111.6217937953517065
 30
0.0
 11
211.3968414208804916
 21
124.1969635406339023
 31
0.0
  0
LINE
  5
22BD7
  8
PL3
 10
211.3968414208804916
 20
124.1969635406339023
 30
0.0
 11
210.392970681267002
 21
124.1969635406339023
 31
0.0
  0
LINE
  5
22BD8
  8
PL3
 10
210.392970681267002
 20
124.1969635406339023
 30
0.0
 11
210.392970681267002
 21
111.6217937953517065
 31
0.0
  0
LINE
  5
22BD9
  8
PL3
 10
210.3917893154701062
 20
64.1959255437509597
 30
0.0
 11
211.3917893154701062
 21
64.1959255437509597
 31
0.0
  0
LINE
  5
22BDA
  8
PL3
 10
211.3917893154701062
 20
64.1959255437509597
 30
0.0
 11
211.3960596522074127
 21
60.2892871430971766
 31
0.0
  0
LINE
  5
22BDB
  8
PL3
 10
211.3960596522074127
 20
60.2892871430971766
 30
0.0
 11
210.392970681267002
 21
60.2892871430971766
 31
0.0
  0
LINE
  5
22BDC
  8
PL3
 10
210.392970681267002
 20
60.2892871430971766
 30
0.0
 11
210.392970681267002
 21
64.1959255437509029
 31
0.0
  0
LINE
  5
22BDD
  8
PL4
 10
211.3960596522065032
 20
60.2892871430971766
 30
0.0
 11
212.0627263188731888
 21
60.2892871430971766
 31
0.0
  0
LINE
  5
22BDE
  8
PL4
 10
212.0627263188731888
 20
60.2892871430971766
 30
0.0
 11
212.0627263188731888
 21
101.1074568326601053
 31
0.0
  0
LINE
  5
23BD9
  8
枠横ライン
 10
15.8841510801070207
 20
20.3404917229349884
 30
0.0
 11
296.1082891980096861
 21
20.3400917229349716
 31
0.0
  0
LINE
  5
23BDA
  8
枠横ライン
 10
296.1082829724770136
 20
33.0218563807451417
 30
0.0
 11
15.8841448545743997
 21
33.0222563807451479
 31
0.0
  0
LINE
  5
23BDB
  8
枠ライン
 10
210.3895961336311018
 20
26.6812756867058205
 30
0.0
 11
153.7055758866729889
 21
26.6812756867058205
 31
0.0
  0
TEXT
  5
23BDC
  8
枠文字
 10
88.3597774151066488
 20
22.9765540060969293
 30
0.0
 40
1.686729999999999
  1
図
 72
     1
 11
89.1469180817733218
 21
22.9765540060969293
 31
0.0
  0
LINE
  5
23BDD
  8
枠ライン
 10
87.6469180817734355
 20
20.3408917229438089
 30
0.0
 11
87.6469180817734355
 21
33.0221539444972265
 31
0.0
  0
LINE
  5
23BDE
  8
枠ライン
 10
87.6469180817734355
 20
33.0221539444972265
 30
0.0
 11
87.6469180817734355
 21
20.3408917229438089
 31
0.0
  0
LINE
  5
23BDF
  8
枠ライン
 10
87.6469180817734355
 20
20.3404917229438489
 30
0.0
 11
87.6469180817734355
 21
33.0221539444972265
 31
0.0
  0
LINE
  5
23BE0
  8
枠ライン
 10
87.6469180817734355
 20
33.0221539444972265
 30
0.0
 11
87.6469180817734355
 21
20.3404917229438489
 31
0.0
  0
LINE
  5
23BE1
  8
枠ライン
 10
90.6470180817733535
 20
20.3404917229438489
 30
0.0
 11
90.6470180817733535
 21
33.0221496620681023
 31
0.0
  0
LINE
  5
23BE2
  8
枠ライン
 10
90.6470180817733535
 20
33.0221496620681023
 30
0.0
 11
90.6470180817733535
 21
20.3404917229438489
 31
0.0
  0
LINE
  5
23BE3
  8
枠ライン
 10
77.6467780817733342
 20
20.3408917229438089
 30
0.0
 11
77.6467780817733342
 21
33.0221682189848593
 31
0.0
  0
LINE
  5
23BE4
  8
枠ライン
 10
15.8841487431540092
 20
24.5679539444916486
 30
0.0
 11
87.6469219703529347
 21
24.5679539444916486
 31
0.0
  0
ARC
  5
23BE5
  8
枠文字
 10
25.3599843317317699
 20
22.7391341887719101
 30
0.0
 40
0.150643
 50
268.8480000000012069
 51
315.187999999997885
  0
ARC
  5
23BE6
  8
枠文字
 10
25.3541843317318616
 20
22.7455341887718987
 30
0.0
 40
0.157019
 50
225.7909999999988031
 51
271.0309999999976185
  0
LINE
  5
23BE7
  8
枠文字
 10
25.3569843317318409
 20
22.9017341887719112
 30
0.0
 11
25.4668843317317588
 21
22.8552341887718811
 31
0.0
  0
ARC
  5
23BE8
  8
枠文字
 10
25.3498843317319213
 20
22.7487341887718912
 30
0.0
 40
0.149708
 50
134.6539999999997121
 51
181.4349999999990075
  0
LINE
  5
23BE9
  8
枠文字
 10
25.244684331731829
 20
22.8552341887718811
 30
0.0
 11
25.3569843317318409
 21
22.9017341887719112
 31
0.0
  0
ARC
  5
23BEA
  8
枠文字
 10
25.3660843317318303
 20
22.7475341887719082
 30
0.0
 40
0.147524
 50
359.010999999999683
 51
46.8889999999988021
  0
ARC
  5
23BEB
  8
枠文字
 10
25.3600843317318585
 20
22.7432341887719112
 30
0.0
 40
0.153466
 50
314.0869999999987954
 51
0.647999999999022
  0
ARC
  5
23BEC
  8
枠文字
 10
25.3567843317318911
 20
22.7423341887719097
 30
0.0
 40
0.156603
 50
179.0289999999995985
 51
224.268999999999096
  0
ARC
  5
23BED
  8
枠文字
 10
25.3666843317319
 20
21.9105341887719192
 30
0.0
 40
0.146891
 50
313.0019999999997822
 51
1.0990000000005979
  0
ARC
  5
23BEE
  8
枠文字
 10
25.351184331731929
 20
21.9101341887719094
 30
0.0
 40
0.151049
 50
178.7850000000005082
 51
225.1259999999992942
  0
ARC
  5
23BEF
  8
枠文字
 10
25.3597843317319303
 20
21.9029341887718907
 30
0.0
 40
0.14642
 50
268.8889999999972815
 51
316.9869999999988863
  0
ARC
  5
23BF0
  8
枠文字
 10
25.3548843317319097
 20
21.910334188771909
 30
0.0
 40
0.153785
 50
224.224999999998488
 51
270.7849999999988881
  0
LINE
  5
23BF1
  8
枠文字
 10
25.244684331731829
 20
22.0232341887718803
 30
0.0
 11
25.3569843317318409
 21
22.0697341887719212
 31
0.0
  0
LINE
  5
23BF2
  8
枠文字
 10
25.3569843317318409
 20
22.0697341887719212
 30
0.0
 11
25.4668843317317588
 21
22.0232341887718803
 31
0.0
  0
ARC
  5
23BF3
  8
枠文字
 10
25.349484331731901
 20
21.9169341887719114
 30
0.0
 40
0.149305
 50
134.5920000000020025
 51
181.3719999999995025
  0
ARC
  5
23BF4
  8
枠文字
 10
25.3670843317317996
 20
21.915934188771871
 30
0.0
 40
0.146502
 50
358.9650000000006003
 51
47.0629999999987731
  0
LINE
  5
23BF5
  8
枠ライン
 10
15.8841487431540092
 20
28.7950539444916593
 30
0.0
 11
87.6469219703529347
 21
28.7950539444916593
 31
0.0
  0
ARC
  5
23BF6
  8
枠文字
 10
25.3567843317318911
 20
26.9697964103196988
 30
0.0
 40
0.156603
 50
179.0289999999995985
 51
224.268999999999096
  0
ARC
  5
23BF7
  8
枠文字
 10
25.3541843317318616
 20
26.9729964103196984
 30
0.0
 40
0.157019
 50
225.7909999999988031
 51
271.0309999999976185
  0
ARC
  5
23BF8
  8
枠文字
 10
25.3599843317317699
 20
26.9665964103197098
 30
0.0
 40
0.150643
 50
268.8480000000012069
 51
315.187999999997885
  0
ARC
  5
23BF9
  8
枠文字
 10
25.3600843317318585
 20
26.9706964103197002
 30
0.0
 40
0.153466
 50
314.0869999999987954
 51
0.647999999999022
  0
ARC
  5
23BFA
  8
枠文字
 10
25.3660843317318303
 20
26.9749964103197115
 30
0.0
 40
0.147524
 50
359.010999999999683
 51
46.8889999999988021
  0
LINE
  5
23BFB
  8
枠文字
 10
25.244684331731829
 20
27.0826964103196701
 30
0.0
 11
25.3569843317318409
 21
27.129196410319711
 31
0.0
  0
ARC
  5
23BFC
  8
枠文字
 10
25.3498843317319213
 20
26.976196410319691
 30
0.0
 40
0.149708
 50
134.6539999999997121
 51
181.4349999999990075
  0
LINE
  5
23BFD
  8
枠文字
 10
25.3569843317318409
 20
27.129196410319711
 30
0.0
 11
25.4668843317317588
 21
27.0826964103196701
 31
0.0
  0
ARC
  5
23BFE
  8
枠文字
 10
25.3670843317317996
 20
26.1433964103196708
 30
0.0
 40
0.146502
 50
358.9650000000006003
 51
47.0629999999987731
  0
ARC
  5
23BFF
  8
枠文字
 10
25.349484331731901
 20
26.1443964103197004
 30
0.0
 40
0.149305
 50
134.5920000000020025
 51
181.3719999999995025
  0
ARC
  5
23C00
  8
枠文字
 10
25.351184331731929
 20
26.1375964103197092
 30
0.0
 40
0.151049
 50
178.7850000000005082
 51
225.1259999999992942
  0
ARC
  5
23C01
  8
枠文字
 10
25.3548843317319097
 20
26.1377964103197087
 30
0.0
 40
0.153785
 50
224.224999999998488
 51
270.7849999999988881
  0
ARC
  5
23C02
  8
枠文字
 10
25.3597843317319303
 20
26.1303964103196904
 30
0.0
 40
0.14642
 50
268.8889999999972815
 51
316.9869999999988863
  0
ARC
  5
23C03
  8
枠文字
 10
25.3666843317319
 20
26.1379964103197189
 30
0.0
 40
0.146891
 50
313.0019999999997822
 51
1.0990000000005979
  0
LINE
  5
23C04
  8
枠文字
 10
25.3569843317318409
 20
26.2971964103197209
 30
0.0
 11
25.4668843317317588
 21
26.25069641031968
 31
0.0
  0
LINE
  5
23C05
  8
枠文字
 10
25.244684331731829
 20
26.25069641031968
 30
0.0
 11
25.3569843317318409
 21
26.2971964103197209
 31
0.0
  0
LINE
  5
23C06
  8
枠文字
 10
25.244684331731829
 20
30.4777964103196908
 30
0.0
 11
25.3569843317318409
 21
30.524296410319721
 31
0.0
  0
LINE
  5
23C07
  8
枠文字
 10
25.3569843317318409
 20
30.524296410319721
 30
0.0
 11
25.4668843317317588
 21
30.4777964103196908
 31
0.0
  0
ARC
  5
23C08
  8
枠文字
 10
25.3666843317319
 20
30.365096410319719
 30
0.0
 40
0.146891
 50
313.0019999999997822
 51
1.0990000000005979
  0
ARC
  5
23C09
  8
枠文字
 10
25.3597843317319303
 20
30.3574964103197011
 30
0.0
 40
0.14642
 50
268.8889999999972815
 51
316.9869999999988863
  0
ARC
  5
23C0A
  8
枠文字
 10
25.3548843317319097
 20
30.3648964103197194
 30
0.0
 40
0.153785
 50
224.224999999998488
 51
270.7849999999988881
  0
ARC
  5
23C0B
  8
枠文字
 10
25.351184331731929
 20
30.3646964103197092
 30
0.0
 40
0.151049
 50
178.7850000000005082
 51
225.1259999999992942
  0
ARC
  5
23C0C
  8
枠文字
 10
25.349484331731901
 20
30.3714964103197111
 30
0.0
 40
0.149305
 50
134.5920000000020025
 51
181.3719999999995025
  0
ARC
  5
23C0D
  8
枠文字
 10
25.3670843317317996
 20
30.3704964103196815
 30
0.0
 40
0.146502
 50
358.9650000000006003
 51
47.0629999999987731
  0
LINE
  5
23C0E
  8
枠文字
 10
25.3569843317318409
 20
31.3562964103197217
 30
0.0
 11
25.4668843317317588
 21
31.3097964103196809
 31
0.0
  0
ARC
  5
23C0F
  8
枠文字
 10
25.3498843317319213
 20
31.2032964103197017
 30
0.0
 40
0.149708
 50
134.6539999999997121
 51
181.4349999999990075
  0
LINE
  5
23C10
  8
枠文字
 10
25.244684331731829
 20
31.3097964103196809
 30
0.0
 11
25.3569843317318409
 21
31.3562964103197217
 31
0.0
  0
ARC
  5
23C11
  8
枠文字
 10
25.3660843317318303
 20
31.2020964103197116
 30
0.0
 40
0.147524
 50
359.010999999999683
 51
46.8889999999988021
  0
ARC
  5
23C12
  8
枠文字
 10
25.3600843317318585
 20
31.197796410319711
 30
0.0
 40
0.153466
 50
314.0869999999987954
 51
0.647999999999022
  0
ARC
  5
23C13
  8
枠文字
 10
25.3599843317317699
 20
31.1936964103197205
 30
0.0
 40
0.150643
 50
268.8480000000012069
 51
315.187999999997885
  0
ARC
  5
23C14
  8
枠文字
 10
25.3541843317318616
 20
31.2000964103196985
 30
0.0
 40
0.157019
 50
225.7909999999988031
 51
271.0309999999976185
  0
ARC
  5
23C15
  8
枠文字
 10
25.3567843317318911
 20
31.1968964103197095
 30
0.0
 40
0.156603
 50
179.0289999999995985
 51
224.268999999999096
  0
LINE
  5
23C16
  8
枠ライン
 10
87.6469180817734355
 20
31.5913117229438285
 30
0.0
 11
87.6469180817734355
 21
33.0221539444972265
 31
0.0
  0
TEXT
  5
23C17
  8
枠文字
 10
88.3597774151066488
 20
29.3017540060969814
 30
0.0
 40
1.686729999999999
  1
検
 72
     1
 11
89.1469180817733218
 21
29.3017540060969814
 31
0.0
  0
LINE
  5
23C18
  8
枠ライン
 10
132.4065051042881862
 20
33.022090053374427
 30
0.0
 11
132.4064864820624052
 21
20.3403398594625209
 31
0.0
  0
LINE
  5
23C19
  8
枠ライン
 10
153.7055758866731026
 20
33.0220596504677815
 30
0.0
 11
153.7055758866731026
 21
20.3404917229438489
 31
0.0
  0
LINE
  5
23C1A
  8
枠ライン
 10
153.7055758866731026
 20
20.3404917229438489
 30
0.0
 11
153.7055758866731026
 21
33.0220596504677815
 31
0.0
  0
LINE
  5
23C1B
  8
枠ライン
 10
105.1473180817734061
 20
33.0221289639225688
 30
0.0
 11
105.1473180817734061
 21
20.3404917229438489
 31
0.0
  0
TEXT
  5
23C1C
  8
枠文字
 10
154.7065758866729936
 20
24.3663387729108116
 30
0.0
 40
1.9678500000000001
  1
PART 
  0
LINE
  5
23C1D
  8
枠ライン
 10
105.1473163794453995
 20
26.6814149564185108
 30
0.0
 11
132.4064957931753952
 21
26.6812149564184509
 31
0.0
  0
TEXT
  5
23C1E
  8
枠文字
 10
133.5572179084213928
 20
30.5446430692626301
 30
0.0
 40
1.9678500000000001
  1
SCALE
  0
LINE
  5
23C1F
  8
枠ライン
 10
153.7055758866731026
 20
27.8405117229437984
 30
0.0
 11
153.7055758866731026
 21
33.0220596504677815
 31
0.0
  0
TEXT
  5
23C20
  8
枠文字
 10
154.7065758866731073
 20
30.6851458611715806
 30
0.0
 40
1.9678500000000001
  1
TITLE
  0
TEXT
  5
23C21
  8
枠文字
 10
276.4255961336310747
 20
30.2003831114203685
 30
0.0
 40
1.9678500000000001
  1
No.
  0
LINE
  5
23C22
  8
枠横ライン
 10
275.3615961336309965
 20
20.3400917229438392
 30
0.0
 11
275.3615961336309965
 21
33.0218859951630819
 31
0.0
  0
LINE
  5
23C23
  8
枠ライン
 10
210.3895961336311018
 20
27.8401117229438384
 30
0.0
 11
210.3895961336311018
 21
20.3400917229438392
 31
0.0
  0
LINE
  5
23C24
  8
枠ライン
 10
210.3895961336311018
 20
33.0219787380658616
 30
0.0
 11
210.3895961336311018
 21
27.8401117229438384
 31
0.0
  0
TEXT
  5
23C25
  8
枠文字
 10
129.9376875279467924
 20
21.9965976259533811
 30
0.0
 40
2.399999999999999
  1
 　1:2 1:3 1:10
  0
TEXT
  5
23C26
  8
枠文字
 10
165.3507434967858956
 20
21.3274668005988701
 30
0.0
 40
2.399999999999999
  1
DWB－FRTB アクリル
  0
LINE
  5
23C28
  8
枠横ライン
 10
15.8844248849589995
 20
212.1573133587735072
 30
0.0
 11
296.108563002861672
 21
212.1569133587736076
 31
0.0
  0
LINE
  5
23C29
  8
枠横ライン
 10
15.8841510801070207
 20
20.3404917229349884
 30
0.0
 11
15.8844248849589995
 21
212.1573133587735072
 31
0.0
  0
LINE
  5
23C2A
  8
枠横ライン
 10
296.1082891980096861
 20
20.3400917229349716
 30
0.0
 11
296.108563002861672
 21
212.1569133587736076
 31
0.0
  0
TEXT
  5
23C2B
  8
枠文字
 10
106.3877163794449956
 20
24.2103647498468604
 30
0.0
 40
1.9678500000000001
  1
DRAWING
  0
TEXT
  5
23C2C
  8
枠文字
 10
106.3877180817733006
 20
30.5446430692626301
 30
0.0
 40
1.9678500000000001
  1
DATE
  0
TEXT
  5
23C2D
  8
枠文字
 10
114.7346092082554065
 20
27.8265251994799883
 30
0.0
 40
2.0
  1
2024．4．1
  0
TEXT
  5
23C2E
  8
枠文字
 10
124.1395568813986046
 20
21.9614310845392993
 30
0.0
 40
2.0
  1
高　桑
  0
ARC
  5
2448E
  8
本体1
  6
CONTINUOUS
 10
111.4042408905561956
 20
167.5231153648545046
 30
0.0
 40
0.4999999500000001
 50
180.0
 51
270.0
  0
LINE
  5
2448F
  8
壁
 10
74.3292458905558533
 20
174.5230903648545109
 30
0.0
 11
130.2536476862470067
 21
174.5230903648545109
 31
0.0
  0
LINE
  5
24490
  8
本体1
 10
74.3340264970621547
 20
171.6230953648544926
 30
0.0
 11
113.8542458905559016
 21
171.6230953648544926
 31
0.0
  0
LINE
  5
24491
  8
本体1
  6
CONTINUOUS
 10
110.9042408905561956
 20
171.5231553648544036
 30
0.0
 11
113.8542458905559016
 21
171.5231553648544036
 31
0.0
  0
LINE
  5
24492
  8
本体1
  6
CONTINUOUS
 10
110.9042408905561956
 20
173.1230953648554021
 30
0.0
 11
113.8542458905559016
 21
173.1230953648554021
 31
0.0
  0
LINE
  5
24493
  8
本体1
  6
CONTINUOUS
 10
113.8542458905559016
 20
173.6731303648545008
 30
0.0
 11
110.9042408905561956
 21
173.6731303648545008
 31
0.0
  0
LINE
  5
24494
  8
壁
 10
19.655041438547979
 20
174.5230903648545109
 30
0.0
 11
73.0792458905558533
 21
174.5230903648545109
 31
0.0
  0
LINE
  5
24495
  8
壁
 10
31.0904079225593897
 20
181.4983629042183964
 30
0.0
 11
24.0193401106931788
 21
174.4272950923534893
 31
0.0
  0
LINE
  5
24496
  8
壁
 10
33.5904079225593932
 20
181.4983629042183964
 30
0.0
 11
26.5193401106931788
 21
174.4272950923534893
 31
0.0
  0
LINE
  5
24497
  8
壁
 10
28.5904079225593897
 20
181.4983629042183964
 30
0.0
 11
21.5193401106931788
 21
174.4272950923534893
 31
0.0
  0
LINE
  5
24499
  8
本体1
 10
33.5542258905571771
 20
171.6230953648544926
 30
0.0
 11
72.5662595440950327
 21
171.6230953648544926
 31
0.0
  0
LINE
  5
2449A
  8
本体1
 10
36.5042758905561868
 20
167.5231153648545046
 30
0.0
 11
73.0792458905558533
 21
167.5231153648545046
 31
0.0
  0
LINE
  5
2449E
  8
本体1
 10
36.5042758905561868
 20
173.1230953648554021
 30
0.0
 11
73.0792458905558533
 21
173.1230953648554021
 31
0.0
  0
LINE
  5
2449F
  8
本体1
  6
CONTINUOUS
 10
35.9542608905559291
 20
167.5731253648544907
 30
0.0
 11
35.9542608905559291
 21
170.9731403648544017
 31
0.0
  0
LINE
  5
244A0
  8
本体1
  6
CONTINUOUS
 10
36.5042758905561868
 20
167.5231153648545046
 30
0.0
 11
36.5042758905561868
 21
171.5231553648544036
 31
0.0
  0
ARC
  5
244A1
  8
本体1
  6
CONTINUOUS
 10
34.5042358905562878
 20
168.523135364854511
 30
0.0
 40
0.9499999500000001
 50
180.0
 51
270.0
  0
ARC
  5
244A2
  8
本体1
  6
CONTINUOUS
 10
34.5042358905562878
 20
168.523135364854511
 30
0.0
 40
1.4999999500000001
 50
180.0
 51
270.0
  0
ARC
  5
244A3
  8
本体1
  6
CONTINUOUS
 10
36.0042658905559918
 20
167.5231153648545046
 30
0.0
 40
0.4999999500000001
 50
270.0
 51
0.0
  0
LINE
  5
244A4
  8
本体1
  6
CONTINUOUS
 10
36.0042658905559918
 20
167.0231403648544131
 30
0.0
 11
34.5042358905562878
 21
167.0231403648544131
 31
0.0
  0
LINE
  5
244A5
  8
本体1
  6
CONTINUOUS
 10
35.9542608905559291
 20
167.5731253648544907
 30
0.0
 11
34.5042358905562878
 21
167.5731253648544907
 31
0.0
  0
LINE
  5
244A6
  8
本体1
  6
CONTINUOUS
 10
33.5542258905571771
 20
173.6731303648545008
 30
0.0
 11
33.5542258905571771
 21
174.5230903648545109
 31
0.0
  0
LINE
  5
244A7
  8
本体1
  6
CONTINUOUS
 10
33.0042458905560423
 20
168.523135364854511
 30
0.0
 11
33.0042458905560423
 21
174.5230903648545109
 31
0.0
  0
LINE
  5
244A8
  8
本体1
  6
CONTINUOUS
 10
33.5542258905571771
 20
173.6731303648545008
 30
0.0
 11
36.5042758905561868
 21
173.6731303648545008
 31
0.0
  0
LINE
  5
244A9
  8
本体1
  6
CONTINUOUS
 10
33.5542258905571771
 20
173.1230953648554021
 30
0.0
 11
36.5042758905561868
 21
173.1230953648554021
 31
0.0
  0
LINE
  5
244AA
  8
本体1
  6
CONTINUOUS
 10
33.5542258905571771
 20
171.5231553648544036
 30
0.0
 11
36.5042758905561868
 21
171.5231553648544036
 31
0.0
  0
LINE
  5
244AB
  8
本体1
  6
CONTINUOUS
 10
33.5542258905571771
 20
168.523135364854511
 30
0.0
 11
33.5542258905571771
 21
170.9731403648544017
 31
0.0
  0
LINE
  5
244AC
  8
本体1
  6
CONTINUOUS
 10
33.5542258905571771
 20
170.9731403648544017
 30
0.0
 11
35.9542608905559291
 21
170.9731403648544017
 31
0.0
  0
LINE
  5
244AD
  8
本体1
  6
CONTINUOUS
 10
33.5542258905571771
 20
171.5231553648544036
 30
0.0
 11
33.5542258905571771
 21
173.1230953648554021
 31
0.0
  0
LINE
  5
244AE
  8
本体1
 10
36.5042758905561868
 20
168.3730953648544926
 30
0.0
 11
36.5042758905561868
 21
171.6230953648544926
 31
0.0
  0
LINE
  5
244AF
  8
本体1
  6
CONTINUOUS
 10
36.5042758905561868
 20
173.1230953648554021
 30
0.0
 11
36.5042758905561868
 21
173.6731303648545008
 31
0.0
  0
LINE
  5
244B0
  8
本体1
  6
CONTINUOUS
 10
33.0042458905560423
 20
174.5230903648545109
 30
0.0
 11
33.5542258905571771
 21
174.5230903648545109
 31
0.0
  0
LINE
  5
244B1
  8
本体1
 10
51.8141250516820335
 20
173.1230953648554021
 30
0.0
 11
51.8141250516820335
 21
174.5230903648545109
 31
0.0
  0
LINE
  5
244B3
  8
本体1
 10
110.9042408905561956
 20
173.1230953648554021
 30
0.0
 11
74.5744652840513709
 21
173.1230953648554021
 31
0.0
  0
LINE
  5
244B8
  8
本体1
 10
74.3292458905558533
 20
167.5231153648545046
 30
0.0
 11
110.9039611233989007
 21
167.5231153648545046
 31
0.0
  0
LINE
  5
244B9
  8
注釈
 10
73.0792458905558533
 20
165.8284757802844922
 30
0.0
 11
73.0792458905558533
 21
170.3860817113153132
 31
0.0
  0
LINE
  5
244BA
  8
注釈
 10
74.3292458905558533
 20
165.8284757802844922
 30
0.0
 11
74.3292458905558533
 21
170.9038486642812984
 31
0.0
  0
LINE
  5
244BB
  8
注釈
 10
73.0792458905558533
 20
172.8505478053824049
 30
0.0
 11
73.0792458905558533
 21
177.1461368264853036
 31
0.0
  0
LINE
  5
244BC
  8
注釈
 10
74.3292458905558533
 20
173.3683147583492996
 30
0.0
 11
74.3292458905558533
 21
177.1461368264853036
 31
0.0
  0
LINE
  5
244BD
  8
注釈
 10
74.3292458905558533
 20
170.9038486642812984
 30
0.0
 11
73.9720128435229753
 21
171.2610817113153132
 31
0.0
  0
LINE
  5
244BE
  8
注釈
 10
73.0792458905558533
 20
170.3860817113153132
 30
0.0
 11
72.2042458905558533
 21
171.2610817113153132
 31
0.0
  0
LINE
  5
244BF
  8
注釈
 10
73.4364789375900955
 20
172.4933147583492996
 30
0.0
 11
73.0792458905558533
 21
172.8505478053824049
 31
0.0
  0
LINE
  5
244C0
  8
注釈
 10
73.4364789375900955
 20
172.4933147583492996
 30
0.0
 11
72.2042458905558533
 21
171.2610817113153132
 31
0.0
  0
LINE
  5
244C1
  8
注釈
 10
75.2042458905558533
 20
172.4933147583492996
 30
0.0
 11
74.3292458905558533
 21
173.3683147583492996
 31
0.0
  0
LINE
  5
244C2
  8
注釈
 10
75.2042458905558533
 20
172.4933147583492996
 30
0.0
 11
73.9720128435229753
 21
171.2610817113153132
 31
0.0
  0
LINE
  5
244C3
  8
本体1
  6
CONTINUOUS
 10
110.9042408905561956
 20
167.5231153648545046
 30
0.0
 11
110.9042408905561956
 21
171.5231553648544036
 31
0.0
  0
LINE
  5
244C4
  8
本体1
  6
CONTINUOUS
 10
110.9042408905561956
 20
173.1230953648554021
 30
0.0
 11
110.9042408905561956
 21
173.6731303648545008
 31
0.0
  0
LINE
  5
244C5
  8
本体1
  6
CONTINUOUS
 10
110.9042408905561956
 20
168.1230953648544926
 30
0.0
 11
110.9042408905561956
 21
171.5231553648544036
 31
0.0
  0
LINE
  5
244C6
  8
壁
 10
125.7560838900249962
 20
181.5941581767202138
 30
0.0
 11
118.6850160781591939
 21
174.5230903648545109
 31
0.0
  0
LINE
  5
244C7
  8
壁
 10
128.2560838900249962
 20
181.5941581767202138
 30
0.0
 11
121.1850160781591939
 21
174.5230903648545109
 31
0.0
  0
ARC
  5
244C8
  8
本体1
  6
CONTINUOUS
 10
112.9042508905568951
 20
168.523135364854511
 30
0.0
 40
1.4999999500000001
 50
270.0
 51
0.0
  0
ARC
  5
244C9
  8
本体1
  6
CONTINUOUS
 10
112.9042508905568951
 20
168.523135364854511
 30
0.0
 40
0.9499999500000001
 50
270.0
 51
0.0
  0
LINE
  5
244CA
  8
本体1
  6
CONTINUOUS
 10
111.4542408905559938
 20
167.5731253648544907
 30
0.0
 11
111.4542408905559938
 21
170.9731403648544017
 31
0.0
  0
LINE
  5
244CB
  8
本体1
  6
CONTINUOUS
 10
112.9042508905568951
 20
167.0231403648544131
 30
0.0
 11
111.4042408905561956
 21
167.0231403648544131
 31
0.0
  0
LINE
  5
244CC
  8
本体1
  6
CONTINUOUS
 10
111.4542408905559938
 20
167.5731253648544907
 30
0.0
 11
112.9042508905568951
 21
167.5731253648544907
 31
0.0
  0
LINE
  5
244CD
  8
本体1
  6
CONTINUOUS
 10
114.404245890556993
 20
168.523135364854511
 30
0.0
 11
114.404245890556993
 21
174.5230903648545109
 31
0.0
  0
LINE
  5
244CE
  8
本体1
  6
CONTINUOUS
 10
113.8542458905559016
 20
168.523135364854511
 30
0.0
 11
113.8542458905559016
 21
170.9731403648544017
 31
0.0
  0
LINE
  5
244CF
  8
本体1
  6
CONTINUOUS
 10
113.8542458905559016
 20
170.9731403648544017
 30
0.0
 11
111.4542408905559938
 21
170.9731403648544017
 31
0.0
  0
LINE
  5
244D0
  8
本体1
  6
CONTINUOUS
 10
113.8542458905559016
 20
171.5231553648544036
 30
0.0
 11
113.8542458905559016
 21
173.1230953648554021
 31
0.0
  0
LINE
  5
244D1
  8
本体1
  6
CONTINUOUS
 10
113.8542458905559016
 20
173.6731303648545008
 30
0.0
 11
113.8542458905559016
 21
174.5230903648545109
 31
0.0
  0
LINE
  5
244D2
  8
本体1
  6
CONTINUOUS
 10
114.404245890556993
 20
174.5230903648545109
 30
0.0
 11
113.8542458905559016
 21
174.5230903648545109
 31
0.0
  0
LINE
  5
244D3
  8
壁
 10
123.2560838900249962
 20
181.5941581767202138
 30
0.0
 11
116.1850160781591939
 21
174.5230903648545109
 31
0.0
  0
LINE
  5
244DA
  8
本体1
 10
41.8823283755469902
 20
173.1230953648554021
 30
0.0
 11
41.8823283755469902
 21
174.5230903648545109
 31
0.0
  0
TEXT
  5
2451F
  8
注釈
 10
74.1107411373151308
 20
192.8413632510693105
 30
0.0
 40
2.9999999999999978
  1
アルマイト仕上
  7
角ゴ
  0
TEXT
  5
24520
  8
注釈
 10
56.1658263903688066
 20
196.6826858020093027
 30
0.0
 40
2.9999999999999978
  1
フレーム：アルミ型材 
  7
角ゴ
  0
LINE
  5
24521
  8
注釈
 10
55.5964394778121687
 20
196.1928085833492901
 30
0.0
 11
99.106687752776125
 21
196.1928085833492901
 31
0.0
  0
TEXT
  5
24524
  8
注釈
 10
224.9074910981809978
 20
140.6187797351327049
 30
0.0
 40
2.9999999999999978
  1
ＡＢＳ樹脂
  7
角ゴ
  0
LINE
  5
24525
  8
注釈
 10
223.8902423381153142
 20
140.1289025164726922
 30
0.0
 11
243.1713781037913122
 21
140.1289025164726922
 31
0.0
1001
ACAD
1000
DSTYLE
1002
{
1070
    41
1040
0.5
1070
    42
1040
1.0
1070
    43
1040
3.0
1070
    44
1040
0.0
1070
    73
1070
     0
1070
    74
1070
     0
1070
    77
1070
     3
1070
    78
1070
    13
1070
   140
1040
2.399999999999999
1070
   141
1040
0.0
1070
   143
1040
0.0394
1070
   147
1040
0.7
1070
   171
1070
     4
1070
   172
1070
     1
1070
   173
1070
     1
1070
   176
1070
     2
1070
   177
1070
     2
1070
   178
1070
     2
1070
   271
1070
     0
1070
   272
1070
     0
1070
   273
1070
     8
1070
   274
1070
     4
1070
   284
1070
    13
1070
   341
1005
36B9
1070
   343
1005
36B9
1070
   344
1005
36B9
1002
}
  0
TEXT
  5
24527
  8
注釈
 10
112.3106816554973051
 20
136.5199051753452011
 30
0.0
 40
3.0
  1
カラー塗装
  7
角ゴ
  0
TEXT
  5
24528
  8
注釈
 10
73.8077447706925369
 20
136.6047966599167864
 30
0.0
 40
3.0
  1
キャップ：樹脂成型品
  7
角ゴ
  0
TEXT
  5
2452C
  8
注釈
 10
223.9389575008561906
 20
133.0713058891437868
 30
0.0
 40
2.9999999999999978
  1
ベース：スチール複合板 t3
  7
角ゴ
  0
LINE
  5
2452D
  8
注釈
 10
223.3695705883004052
 20
132.5814286704836888
 30
0.0
 11
268.4484640061272103
 21
132.5814286704836888
 31
0.0
  0
TEXT
  5
24533
  8
注釈
 10
108.1186801098920967
 20
186.1014108180791879
 30
0.0
 40
2.9999999999999978
  1
ベース：スチール複合板 t3
  7
角ゴ
  0
LINE
  5
24534
  8
注釈
 10
107.5492931973358992
 20
185.6115335994192037
 30
0.0
 11
152.6281866151639974
 21
185.6115335994192037
 31
0.0
  0
LINE
  5
24535
  8
注釈
  6
BYBLOCK
 10
52.3569891028688517
 20
181.3289520489203142
 30
0.0
 11
95.5910336204179885
 21
181.328952140014394
 31
0.0
  0
TEXT
  5
24536
  8
注釈
  6
CONTINUOUS
 10
70.7841514514357186
 20
177.8885882215348886
 30
0.0
 40
2.9999999999999978
  1
アルマイト仕上
  7
角ゴ
  0
TEXT
  5
24538
  8
注釈
  6
CONTINUOUS
 10
51.5410709319730813
 20
182.8873134376499081
 30
0.0
 40
2.9999999999999978
  1
フレーム：アルミt1曲加工
  7
角ゴ
  0
LINE
  5
2453C
  8
注釈
 10
98.7777024554037979
 20
113.1550147622448037
 30
0.0
 11
151.594549065246099
 21
113.1550147622448037
 31
0.0
  0
TEXT
  5
2453D
  8
注釈
 10
99.2898179121734046
 20
113.833118211209495
 30
0.0
 40
3.0
  1
表示基板：アクリルマット板t3 
  7
角ゴ
  0
TEXT
  5
2453E
  8
注釈
 10
137.4784083822777063
 20
109.4280811095189989
 30
0.0
 40
2.9999999999999978
  1
UV印刷
  7
角ゴ
  0
TEXT
  5
2453F
  8
注釈
 10
83.7743216471317282
 20
125.482772829561597
 30
0.0
 40
2.9999999999999978
  1
アルマイト仕上
  7
角ゴ
  0
TEXT
  5
24540
  8
注釈
 10
72.6145915771585209
 20
129.9127494650352901
 30
0.0
 40
2.9999999999999978
  1
フレーム：アルミ型材 
  7
角ゴ
  0
LINE
  5
24541
  8
注釈
  6
BYBLOCK
 10
101.6497739380461951
 20
102.1125547995408027
 30
0.0
 11
166.2333390968080096
 21
102.1125549455718016
 31
0.0
  0
TEXT
  5
24542
  8
注釈
  6
CONTINUOUS
 10
101.6545061877991998
 20
102.7308328502147958
 30
0.0
 40
2.9999999999999978
  1
表示基板：アルミ板t1 アルマイト仕上
  7
角ゴ
  0
TEXT
  5
24545
  8
注釈
 10
118.6635146840850012
 20
157.4047572746854939
 30
0.0
 40
3.0
  1
S=1:2
  7
角ゴ
  0
TEXT
  5
24546
  8
注釈
 10
24.1164100380420301
 20
33.0222446297728922
 30
0.0
 40
3.0
  1
S=1:10
  7
角ゴ
  0
TEXT
  5
24547
  8
注釈
 10
236.8958626774966945
 20
41.5656514136575197
 30
0.0
 40
3.0
  1
S=1:3
  7
角ゴ
  0
LINE
  5
246D2
  8
注釈
 10
226.0474253763019021
 20
146.730736377295699
 30
0.0
 11
289.4259497542242912
 21
146.730736377295699
 31
0.0
  0
TEXT
  5
246D3
  8
注釈
 10
226.559540833071992
 20
147.4088398262607882
 30
0.0
 40
3.0
  1
表示基板：アルミ型材/アルミt1貼り 
  7
角ゴ
  0
LINE
  5
246D5
  8
注釈
 10
225.0426989210548925
 20
122.3761831282872947
 30
0.0
 11
225.5548143778250108
 21
123.0542865772525971
 31
0.0
  0
TEXT
  5
246D6
  8
注釈
 10
225.5548143778250108
 20
124.1396982141665006
 30
0.0
 40
3.0
  1
表示基板：白アクリルt2艶ありUV印刷
  7
角ゴ
  0
LINE
  5
246D8
  8
注釈
 10
225.716053729750513
 20
89.3276135762846764
 30
0.0
 11
249.566626786581395
 21
89.3276135762846764
 31
0.0
  0
TEXT
  5
246D9
  8
注釈
 10
226.2281691865206028
 20
90.0057170252498793
 30
0.0
 40
3.0
  1
マグネットt2
  7
角ゴ
  0
LINE
  5
246DB
  8
注釈
 10
227.0536573998203949
 20
96.3586592356740113
 30
0.0
 11
258.2082328755071785
 21
96.3586592356740539
 31
0.0
  0
TEXT
  5
246DC
  8
注釈
 10
227.5657728565905131
 20
97.0367626846392142
 30
0.0
 40
3.0
  1
スチール複合板t2
  7
角ゴ
  0
LINE
  5
247E5
  8
本体1
 10
52.0705582604604089
 20
113.2325332283589034
 30
0.0
 11
52.0705582604604089
 21
53.2325332283589177
 31
0.0
  0
LINE
  5
247E6
  8
本体1
 10
52.7705582604604615
 20
113.2325332283589034
 30
0.0
 11
52.7705582604604615
 21
53.2325332283589177
 31
0.0
  0
LINE
  5
247E7
  8
本体1
 10
52.0705582604604089
 20
53.2325332283589177
 30
0.0
 11
97.470558260460507
 21
53.2325332283589177
 31
0.0
  0
LINE
  5
247E9
  8
本体1
 10
96.7705582604604615
 20
53.2325332283589177
 30
0.0
 11
96.7705582604604615
 21
113.2325332283589034
 31
0.0
  0
LINE
  5
247EA
  8
本体1
 10
97.470558260460507
 20
113.2325332283589034
 30
0.0
 11
52.0705582604604089
 21
113.2325332283589034
 31
0.0
  0
LINE
  5
247ED
  8
本体1
 10
52.7705582604604615
 20
100.6325332283588949
 30
0.0
 11
52.7705582604604615
 21
53.2325332283589177
 31
0.0
  0
LINE
  5
247F4
  8
本体1
 10
52.7705582604604615
 20
53.2325332283589177
 30
0.0
 11
96.7705582604604615
 21
53.2325332283589177
 31
0.0
  0
LINE
  5
247F7
  8
本体1
 10
96.7705582604604615
 20
53.2325332283589177
 30
0.0
 11
96.7705582604604615
 21
100.6325332283588949
 31
0.0
  0
LINE
  5
248ED
  8
注釈
  6
BYBLOCK
 10
105.2861308595146994
 20
93.6746391081048841
 30
0.0
 11
164.1297790634230012
 21
93.6746392411572515
 31
0.0
  0
TEXT
  5
248EE
  8
注釈
  6
CONTINUOUS
 10
105.2908631092678036
 20
94.2929171587788915
 30
0.0
 40
2.9999999999999978
  1
表示基板：白アクリル板t2　艶あり
  7
角ゴ
  0
TEXT
  5
248EF
  8
注釈
 10
150.0338283358154001
 20
89.289543610504424
 30
0.0
 40
2.9999999999999978
  1
UV印刷
  7
角ゴ
  0
LINE
  5
24C0A
  8
PL9
 10
214.826997425665013
 20
57.8655975127288613
 30
0.0
 11
214.826997425665013
 21
47.8655975127288471
 31
0.0
  0
LINE
  5
24C0B
  8
PL9
 10
214.8270168904977879
 20
65.2076586085011485
 30
0.0
 11
213.8270168904977879
 21
65.2076586085011485
 31
0.0
  0
LINE
  5
24C0C
  8
PL9
 10
213.8270168904977879
 20
75.2076586085011485
 30
0.0
 11
214.8270168904977879
 21
75.2076586085011485
 31
0.0
  0
LINE
  5
24C13
  8
PL9
 10
213.8270168904977879
 20
75.2076586085011485
 30
0.0
 11
213.8270168904977879
 21
65.2076586085011485
 31
0.0
  0
LINE
  5
24C18
  8
PL1
 10
210.3851011734410008
 20
91.6217937953517776
 30
0.0
 11
210.3851011734410008
 21
84.2938357772646043
 31
0.0
  0
LINE
  5
24D18
  8
注釈
 10
226.3060979421397008
 20
166.5806585012761047
 30
0.0
 11
279.4341210587678006
 21
166.5806585012761047
 31
0.0
  0
TEXT
  5
24D19
  8
注釈
 10
226.8182133989097053
 20
167.2587619502413077
 30
0.0
 40
3.0
  1
表示基板：アクリルマット板t3
  7
角ゴ
  0
LINE
  5
24D1C
  8
注釈
 10
227.3060979421397008
 20
156.2897752094544046
 30
0.0
 11
251.5074816237159894
 21
156.2897752094544046
 31
0.0
  0
TEXT
  5
24D1D
  8
注釈
 10
227.8182133989097053
 20
156.9678786584196075
 30
0.0
 40
3.0
  1
マグネットt2
  7
角ゴ
  0
LINE
  5
24D21
  8
注釈
 10
226.3060979421397008
 20
166.5806585012761047
 30
0.0
 11
279.4341210587678006
 21
166.5806585012761047
 31
0.0
  0
TEXT
  5
24D22
  8
注釈
 10
226.8182133989097053
 20
167.2587619502413077
 30
0.0
 40
3.0
  1
表示基板：アクリルマット板t3
  7
角ゴ
  0
TEXT
  5
24D23
  8
注釈
 10
263.985216801966601
 20
141.9411179354272008
 30
0.0
 40
2.9999999999999978
  1
アルマイト仕上
  7
角ゴ
  0
LINE
  5
24D25
  8
注釈
 10
225.8181197110000937
 20
176.3711933777954073
 30
0.0
 11
274.2610195597122811
 21
176.3711933777954073
 31
0.0
  0
TEXT
  5
24D26
  8
注釈
 10
226.330235167770212
 20
177.0492968267606102
 30
0.0
 40
3.0
  1
フレーム：アルミt1　曲加工
  7
角ゴ
  0
LINE
  5
24E33
  8
本体1
 10
96.7705582604604615
 20
109.4325332283589063
 30
0.0
 11
52.7705582604604331
 21
109.4325332283589063
 31
0.0
  0
LINE
  5
24E34
  8
本体1
 10
96.7705582604604615
 20
102.2325332283589034
 30
0.0
 11
52.7705582604604331
 21
102.2325332283589034
 31
0.0
  0
TEXT
  5
24F9A
  8
注釈
 10
249.4364750529512094
 20
172.608333045870495
 30
0.0
 40
2.9999999999999978
  1
アルマイト仕上
  7
角ゴ
  0
LINE
  5
24FC5
  8
本体1
 10
74.3340264970621547
 20
168.1230953648544926
 30
0.0
 11
110.9042408905561956
 21
168.1230953648544926
 31
0.0
  0
LINE
  5
24FC6
  8
本体1
 10
36.5042758905561868
 20
168.1230953648544926
 30
0.0
 11
72.5662595440950327
 21
168.1230953648544926
 31
0.0
  0
LINE
  5
25490
  8
ビス
 10
44.8461638263722691
 20
171.5758501757447902
 30
0.0
 11
48.8461600367339202
 21
171.5703440798143049
 31
0.0
  0
LINE
  5
25491
  8
ビス
 10
48.8461600367339202
 20
171.5703440798143049
 30
0.0
 11
47.8482100159267674
 21
173.0602742852877896
 31
0.0
  0
LINE
  5
25492
  8
ビス
 10
44.8461638263722691
 20
171.5758501757447902
 30
0.0
 11
45.8482103586845184
 21
173.0618998120629044
 31
0.0
  0
LINE
  5
254B7
  8
ビス
  6
CONTINUOUS
 62
     5
 10
219.2919344054861881
 20
70.2218420658769986
 30
0.0
 11
218.5766929753538932
 21
70.4249419727313324
 31
0.0
  0
LINE
  5
254B8
  8
ビス
  6
CONTINUOUS
 62
     5
 10
219.2842317620628876
 20
70.1727063972732736
 30
0.0
 11
218.5849410699534019
 21
70.3712769336658397
 31
0.0
  0
LINE
  5
254B9
  8
ビス
  6
CONTINUOUS
 62
     5
 10
217.489640409217202
 20
70.6972662315751279
 30
0.0
 11
219.9523976220941108
 21
70.6972662315751279
 31
0.0
  0
LINE
  5
254BA
  8
ビス
  6
CONTINUOUS
 62
     5
 10
217.489640409217202
 20
69.6972822315751728
 30
0.0
 11
219.9523976220941108
 21
69.6972822315751728
 31
0.0
  0
LINE
  5
254BB
  8
ビス
  6
CONTINUOUS
 62
     5
 10
220.359444968947912
 20
70.2955455687825719
 30
0.0
 11
220.359444968947912
 21
70.0990028943677146
 31
0.0
  0
LINE
  5
254BC
  8
ビス
  6
CONTINUOUS
 62
     5
 10
220.359444968947912
 20
70.2955455687825719
 30
0.0
 11
219.9523976220941108
 21
70.6972662315751279
 31
0.0
  0
LINE
  5
254BD
  8
ビス
  6
CONTINUOUS
 62
     5
 10
220.359444968947912
 20
70.2218420658769986
 30
0.0
 11
219.2919344054861881
 21
70.2218420658769986
 31
0.0
  0
LINE
  5
254BE
  8
ビス
  6
CONTINUOUS
 62
     5
 10
220.359444968947912
 20
70.1727063972732736
 30
0.0
 11
219.2842317620628876
 21
70.1727063972732736
 31
0.0
  0
LINE
  5
254BF
  8
ビス
  6
CONTINUOUS
 62
     5
 10
220.359444968947912
 20
70.0990028943677146
 30
0.0
 11
219.9523976220941108
 21
69.6972822315751728
 31
0.0
  0
LINE
  5
254C0
  8
ビス
  6
CONTINUOUS
 62
     5
 10
216.9110321822830088
 20
70.1797458018832856
 30
0.0
 11
216.1489075106296127
 21
70.1797458018832856
 31
0.0
  0
LINE
  5
254C1
  8
ビス
  6
CONTINUOUS
 62
     5
 10
216.9239114469355911
 20
70.130610133279589
 30
0.0
 11
216.1489075106296127
 21
70.130610133279589
 31
0.0
  0
LINE
  5
254C2
  8
ビス
  6
CONTINUOUS
 62
     5
 10
216.2784350035313992
 20
70.6972662315751279
 30
0.0
 11
214.8270168904977879
 21
70.6972662315751279
 31
0.0
  0
LINE
  5
254C3
  8
ビス
  6
CONTINUOUS
 62
     5
 10
216.2784350035313992
 20
69.697284564908486
 30
0.0
 11
214.8270168904977879
 21
69.697284564908486
 31
0.0
  0
LINE
  5
254C4
  8
ビス
  6
CONTINUOUS
 62
     5
 10
217.489640409217202
 20
70.6972662315751279
 30
0.0
 11
216.2784350035313992
 21
71.1093601592797313
 31
0.0
  0
LINE
  5
254C5
  8
ビス
  6
CONTINUOUS
 62
     5
 10
217.5362551448573072
 20
70.5991700727089153
 30
0.0
 11
216.2784350035313992
 21
71.0271239440767204
 31
0.0
  0
LINE
  5
254C6
  8
ビス
  6
CONTINUOUS
 62
     5
 10
217.5362551448573072
 20
70.5991700727089153
 30
0.0
 11
216.2784350035313992
 21
70.5991700727088158
 31
0.0
  0
LINE
  5
254C7
  8
ビス
  6
CONTINUOUS
 62
     5
 10
216.2784350035313992
 20
71.1093601592797313
 30
0.0
 11
216.2784350035313992
 21
71.0271239440767204
 31
0.0
  0
LINE
  5
254C8
  8
ビス
  6
CONTINUOUS
 62
     5
 10
217.5362551448573072
 20
69.7953807237746986
 30
0.0
 11
216.2784350035313992
 21
69.7953807237747839
 31
0.0
  0
LINE
  5
254C9
  8
ビス
  6
CONTINUOUS
 62
     5
 10
217.5362551448573072
 20
69.7953807237746986
 30
0.0
 11
216.2784350035313992
 21
69.3674268524068651
 31
0.0
  0
LINE
  5
254CA
  8
ビス
  6
CONTINUOUS
 62
     5
 10
217.489640409217202
 20
69.697284564908486
 30
0.0
 11
216.2784350035313992
 21
69.2851906372038542
 31
0.0
  0
LINE
  5
254CB
  8
ビス
  6
CONTINUOUS
 62
     5
 10
216.2784350035313992
 20
69.2851906372038542
 30
0.0
 11
216.2784350035313992
 21
69.3674268524068651
 31
0.0
  0
LINE
  5
254CC
  8
ビス
  6
CONTINUOUS
 62
     5
 10
216.2784350035313992
 20
70.5991700727088158
 30
0.0
 11
216.2784350035313992
 21
70.6972662315751279
 31
0.0
  0
LINE
  5
254CD
  8
ビス
  6
CONTINUOUS
 62
     5
 10
216.2784350035313992
 20
69.7953807237747839
 30
0.0
 11
216.2784350035313992
 21
69.697284564908486
 31
0.0
  0
LINE
  5
254CE
  8
ビス
  6
CONTINUOUS
 62
     5
 10
217.222031708057898
 20
70.3471255629990395
 30
0.0
 11
216.9110321822830088
 21
70.1797458018832856
 31
0.0
  0
LINE
  5
254CF
  8
ビス
  6
CONTINUOUS
 62
     5
 10
217.2249337094328894
 20
70.2926201371911361
 30
0.0
 11
216.9239114469355911
 21
70.130610133279589
 31
0.0
  0
LINE
  5
254D0
  8
ビス
  6
CONTINUOUS
 62
     5
 10
218.5766929753538932
 20
70.4249419727313324
 30
0.0
 11
217.985001767948205
 21
70.0358605883525343
 31
0.0
  0
LINE
  5
254D1
  8
ビス
  6
CONTINUOUS
 62
     5
 10
218.5849410699534019
 20
70.3712769336658397
 30
0.0
 11
217.9904143001745069
 21
69.9803309541741072
 31
0.0
  0
LINE
  5
254D2
  8
ビス
  6
CONTINUOUS
 62
     5
 10
217.985001767948205
 20
70.0358605883525343
 30
0.0
 11
217.222031708057898
 21
70.3471255629990395
 31
0.0
  0
LINE
  5
254D3
  8
ビス
  6
CONTINUOUS
 62
     5
 10
217.985001767948205
 20
70.0358605883525343
 30
0.0
 11
217.222031708057898
 21
70.3471255629990395
 31
0.0
  0
LINE
  5
254D4
  8
ビス
  6
CONTINUOUS
 62
     5
 10
217.9904143001745069
 20
69.9803309541741072
 30
0.0
 11
217.2249337094328894
 21
70.2926201371911361
 31
0.0
  0
LINE
  5
254D5
  8
ビス
  6
CONTINUOUS
 62
     5
 10
215.864449831001707
 20
69.697284564908486
 30
0.0
 11
215.1603502238311023
 21
69.5353554258032176
 31
0.0
  0
LINE
  5
254D6
  8
ビス
  6
CONTINUOUS
 62
     5
 10
215.864449831001707
 20
70.6972662315751279
 30
0.0
 11
215.1603502238311023
 21
70.8591953706804105
 31
0.0
  0
LINE
  5
254D7
  8
ビス
  6
CONTINUOUS
 62
     5
 10
216.1489075106296127
 20
70.1797458018832856
 30
0.0
 11
216.1489075106296127
 21
70.130610133279589
 31
0.0
  0
LINE
  5
254D8
  8
ビス
 62
     5
 10
214.8270168904977879
 20
69.697284564908486
 30
0.0
 11
214.8270168904977879
 21
70.6972662315750853
 31
0.0
  0
LINE
  5
254D9
  8
ビス
 62
     5
 10
214.8270168904977879
 20
70.1972753982417998
 30
0.0
 11
215.2912091265552021
 21
70.1972753982417998
 31
0.0
  0
LINE
  5
254DA
  8
ビス
 10
214.8270168904977879
 20
70.1972753982417856
 30
0.0
 11
216.181681779924304
 21
70.1972753982417856
 31
0.0
  0
LINE
  5
254DB
  8
ビス
  6
CONTINUOUS
 62
     5
 10
219.2919344054861881
 20
144.3114004389063041
 30
0.0
 11
218.5766929753538932
 21
144.5145003457606094
 31
0.0
  0
LINE
  5
254DC
  8
ビス
  6
CONTINUOUS
 62
     5
 10
219.2842317620628876
 20
144.2622647703026075
 30
0.0
 11
218.5849410699534019
 21
144.4608353066950883
 31
0.0
  0
LINE
  5
254DD
  8
ビス
  6
CONTINUOUS
 62
     5
 10
217.489640409217202
 20
144.7868246046043907
 30
0.0
 11
219.9523976220941108
 21
144.7868246046043907
 31
0.0
  0
LINE
  5
254DE
  8
ビス
  6
CONTINUOUS
 62
     5
 10
217.489640409217202
 20
143.7868406046044072
 30
0.0
 11
219.9523976220941108
 21
143.7868406046044072
 31
0.0
  0
LINE
  5
254DF
  8
ビス
  6
CONTINUOUS
 62
     5
 10
220.359444968947912
 20
144.3851039418117921
 30
0.0
 11
220.359444968947912
 21
144.1885612673970058
 31
0.0
  0
LINE
  5
254E0
  8
ビス
  6
CONTINUOUS
 62
     5
 10
220.359444968947912
 20
144.3851039418117921
 30
0.0
 11
219.9523976220941108
 21
144.7868246046043907
 31
0.0
  0
LINE
  5
254E1
  8
ビス
  6
CONTINUOUS
 62
     5
 10
220.359444968947912
 20
144.3114004389063041
 30
0.0
 11
219.2919344054861881
 21
144.3114004389063041
 31
0.0
  0
LINE
  5
254E2
  8
ビス
  6
CONTINUOUS
 62
     5
 10
220.359444968947912
 20
144.2622647703026075
 30
0.0
 11
219.2842317620628876
 21
144.2622647703026075
 31
0.0
  0
LINE
  5
254E3
  8
ビス
  6
CONTINUOUS
 62
     5
 10
220.359444968947912
 20
144.1885612673970058
 30
0.0
 11
219.9523976220941108
 21
143.7868406046044072
 31
0.0
  0
LINE
  5
254E4
  8
ビス
  6
CONTINUOUS
 62
     5
 10
216.9110321822830088
 20
144.2693041749126053
 30
0.0
 11
216.1489075106296127
 21
144.2693041749126053
 31
0.0
  0
LINE
  5
254E5
  8
ビス
  6
CONTINUOUS
 62
     5
 10
216.9239114469355911
 20
144.2201685063089087
 30
0.0
 11
216.1489075106296127
 21
144.2201685063089087
 31
0.0
  0
LINE
  5
254E6
  8
ビス
  6
CONTINUOUS
 62
     5
 10
216.2784350035313992
 20
144.7868246046043907
 30
0.0
 11
214.8270168904977879
 21
144.7868246046043907
 31
0.0
  0
LINE
  5
254E7
  8
ビス
  6
CONTINUOUS
 62
     5
 10
216.2784350035313992
 20
143.7868429379377915
 30
0.0
 11
214.8270168904977879
 21
143.7868429379377915
 31
0.0
  0
LINE
  5
254E8
  8
ビス
  6
CONTINUOUS
 62
     5
 10
217.489640409217202
 20
144.7868246046043907
 30
0.0
 11
216.2784350035313992
 21
145.1989185323089941
 31
0.0
  0
LINE
  5
254E9
  8
ビス
  6
CONTINUOUS
 62
     5
 10
217.5362551448573072
 20
144.6887284457382066
 30
0.0
 11
216.2784350035313992
 21
145.1166823171060116
 31
0.0
  0
LINE
  5
254EA
  8
ビス
  6
CONTINUOUS
 62
     5
 10
217.5362551448573072
 20
144.6887284457382066
 30
0.0
 11
216.2784350035313992
 21
144.6887284457380929
 31
0.0
  0
LINE
  5
254EB
  8
ビス
  6
CONTINUOUS
 62
     5
 10
216.2784350035313992
 20
145.1989185323089941
 30
0.0
 11
216.2784350035313992
 21
145.1166823171060116
 31
0.0
  0
LINE
  5
254EC
  8
ビス
  6
CONTINUOUS
 62
     5
 10
217.5362551448573072
 20
143.8849390968040041
 30
0.0
 11
216.2784350035313992
 21
143.8849390968040893
 31
0.0
  0
LINE
  5
254ED
  8
ビス
  6
CONTINUOUS
 62
     5
 10
217.5362551448573072
 20
143.8849390968040041
 30
0.0
 11
216.2784350035313992
 21
143.4569852254361138
 31
0.0
  0
LINE
  5
254EE
  8
ビス
  6
CONTINUOUS
 62
     5
 10
217.489640409217202
 20
143.7868429379377915
 30
0.0
 11
216.2784350035313992
 21
143.3747490102331028
 31
0.0
  0
LINE
  5
254EF
  8
ビス
  6
CONTINUOUS
 62
     5
 10
216.2784350035313992
 20
143.3747490102331028
 30
0.0
 11
216.2784350035313992
 21
143.4569852254361138
 31
0.0
  0
LINE
  5
254F0
  8
ビス
  6
CONTINUOUS
 62
     5
 10
216.2784350035313992
 20
144.6887284457380929
 30
0.0
 11
216.2784350035313992
 21
144.7868246046043907
 31
0.0
  0
LINE
  5
254F1
  8
ビス
  6
CONTINUOUS
 62
     5
 10
216.2784350035313992
 20
143.8849390968040893
 30
0.0
 11
216.2784350035313992
 21
143.7868429379377915
 31
0.0
  0
LINE
  5
254F2
  8
ビス
  6
CONTINUOUS
 62
     5
 10
217.222031708057898
 20
144.4366839360282881
 30
0.0
 11
216.9110321822830088
 21
144.2693041749126053
 31
0.0
  0
LINE
  5
254F3
  8
ビス
  6
CONTINUOUS
 62
     5
 10
217.2249337094328894
 20
144.3821785102203989
 30
0.0
 11
216.9239114469355911
 21
144.2201685063089087
 31
0.0
  0
LINE
  5
254F4
  8
ビス
  6
CONTINUOUS
 62
     5
 10
218.5766929753538932
 20
144.5145003457606094
 30
0.0
 11
217.985001767948205
 21
144.1254189613817971
 31
0.0
  0
LINE
  5
254F5
  8
ビス
  6
CONTINUOUS
 62
     5
 10
218.5849410699534019
 20
144.4608353066950883
 30
0.0
 11
217.9904143001745069
 21
144.0698893272034127
 31
0.0
  0
LINE
  5
254F6
  8
ビス
  6
CONTINUOUS
 62
     5
 10
217.985001767948205
 20
144.1254189613817971
 30
0.0
 11
217.222031708057898
 21
144.4366839360282881
 31
0.0
  0
LINE
  5
254F7
  8
ビス
  6
CONTINUOUS
 62
     5
 10
217.985001767948205
 20
144.1254189613817971
 30
0.0
 11
217.222031708057898
 21
144.4366839360282881
 31
0.0
  0
LINE
  5
254F8
  8
ビス
  6
CONTINUOUS
 62
     5
 10
217.9904143001745069
 20
144.0698893272034127
 30
0.0
 11
217.2249337094328894
 21
144.3821785102203989
 31
0.0
  0
LINE
  5
254F9
  8
ビス
  6
CONTINUOUS
 62
     5
 10
215.864449831001707
 20
143.7868429379377915
 30
0.0
 11
215.1603502238311023
 21
143.6249137988324946
 31
0.0
  0
LINE
  5
254FA
  8
ビス
  6
CONTINUOUS
 62
     5
 10
215.864449831001707
 20
144.7868246046043907
 30
0.0
 11
215.1603502238311023
 21
144.9487537437096876
 31
0.0
  0
LINE
  5
254FB
  8
ビス
  6
CONTINUOUS
 62
     5
 10
216.1489075106296127
 20
144.2693041749126053
 30
0.0
 11
216.1489075106296127
 21
144.2201685063089087
 31
0.0
  0
LINE
  5
254FC
  8
ビス
 62
     5
 10
214.8270168904977879
 20
143.7868429379377915
 30
0.0
 11
214.8270168904977879
 21
144.7868246046043907
 31
0.0
  0
LINE
  5
254FD
  8
ビス
 62
     5
 10
214.8270168904977879
 20
144.2868337712710911
 30
0.0
 11
215.2912091265552021
 21
144.2868337712710911
 31
0.0
  0
LINE
  5
254FE
  8
ビス
 10
214.8270168904977879
 20
144.2868337712710911
 30
0.0
 11
216.181681779924304
 21
144.2868337712710911
 31
0.0
  0
LINE
  5
25500
  8
ビス
 10
212.8288550977580087
 20
71.5336394280461008
 30
0.0
 11
212.8251843671376946
 21
68.8669752878050048
 31
0.0
  0
LINE
  5
25501
  8
ビス
 10
212.8251843671376946
 20
68.8669752878050048
 30
0.0
 11
213.8184711707866938
 21
69.5322753016764352
 31
0.0
  0
LINE
  5
25502
  8
ビス
 10
212.8288550977580087
 20
71.5336394280461008
 30
0.0
 11
213.8195548553034939
 21
70.8656084065045917
 31
0.0
  0
LINE
  5
25504
  8
ビス
 10
212.828855097758094
 20
145.6231690535022096
 30
0.0
 11
212.8251843671378083
 21
142.9565049132611136
 31
0.0
  0
LINE
  5
25505
  8
ビス
 10
212.8251843671378083
 20
142.9565049132611136
 30
0.0
 11
213.8184711707868075
 21
143.6218049271325867
 31
0.0
  0
LINE
  5
25506
  8
ビス
 10
212.828855097758094
 20
145.6231690535022096
 30
0.0
 11
213.8195548553034939
 21
144.9551380319607006
 31
0.0
  0
LINE
  5
2550F
  8
ビス
  6
CONTINUOUS
 62
     5
 10
46.8120126266707004
 20
181.2592760845454904
 30
0.0
 11
46.5073627663892282
 21
180.1864139393470907
 31
0.0
  0
LINE
  5
25510
  8
ビス
  6
CONTINUOUS
 62
     5
 10
46.8857161295762808
 20
181.247722119410497
 30
0.0
 11
46.587860324987453
 21
180.1987860812463111
 31
0.0
  0
LINE
  5
25511
  8
ビス
  6
CONTINUOUS
 62
     5
 10
46.0988763781235775
 20
178.5558350901420965
 30
0.0
 11
46.0988763781235775
 21
182.249970909457403
 31
0.0
  0
LINE
  5
25512
  8
ビス
  6
CONTINUOUS
 62
     5
 10
47.5988523781234676
 20
178.5558350901420965
 30
0.0
 11
47.5988523781234676
 21
182.249970909457403
 31
0.0
  0
LINE
  5
25513
  8
ビス
  6
CONTINUOUS
 62
     5
 10
46.7014573723123405
 20
182.8605419297381047
 30
0.0
 11
46.9962713839346407
 21
182.8605419297381047
 31
0.0
  0
LINE
  5
25514
  8
ビス
  6
CONTINUOUS
 62
     5
 10
46.7014573723123405
 20
182.8605419297381047
 30
0.0
 11
46.0988763781235775
 21
182.249970909457403
 31
0.0
  0
LINE
  5
25515
  8
ビス
  6
CONTINUOUS
 62
     5
 10
46.8120126266707004
 20
182.8605419297381047
 30
0.0
 11
46.8120126266707004
 21
181.2592760845454904
 31
0.0
  0
LINE
  5
25516
  8
ビス
  6
CONTINUOUS
 62
     5
 10
46.8857161295762808
 20
182.8605419297381047
 30
0.0
 11
46.8857161295762808
 21
181.247722119410497
 31
0.0
  0
LINE
  5
25517
  8
ビス
  6
CONTINUOUS
 62
     5
 10
46.9962713839346407
 20
182.8605419297381047
 30
0.0
 11
47.5988523781234676
 21
182.249970909457403
 31
0.0
  0
LINE
  5
25518
  8
ビス
  6
CONTINUOUS
 62
     5
 10
46.8751570226612486
 20
177.687922749740693
 30
0.0
 11
46.8751570226612486
 21
176.5447357422605137
 31
0.0
  0
LINE
  5
25519
  8
ビス
  6
CONTINUOUS
 62
     5
 10
46.9488605255668219
 20
177.7072416467196092
 30
0.0
 11
46.9488605255668219
 21
176.5447357422605137
 31
0.0
  0
LINE
  5
2551A
  8
ビス
  6
CONTINUOUS
 62
     5
 10
46.0988763781235775
 20
176.739026981613307
 30
0.0
 11
46.0988763781235775
 21
174.5618998120629044
 31
0.0
  0
LINE
  5
2551B
  8
ビス
  6
CONTINUOUS
 62
     5
 10
47.5988488781234693
 20
176.739026981613307
 30
0.0
 11
47.5988488781234693
 21
174.5618998120629044
 31
0.0
  0
LINE
  5
2551C
  8
ビス
  6
CONTINUOUS
 62
     5
 10
46.0988763781235775
 20
178.5558350901420965
 30
0.0
 11
45.4807354865666227
 21
176.739026981613307
 31
0.0
  0
LINE
  5
2551D
  8
ビス
  6
CONTINUOUS
 62
     5
 10
46.246020616422868
 20
178.6257571936021122
 30
0.0
 11
45.6040898093711391
 21
176.739026981613307
 31
0.0
  0
LINE
  5
2551E
  8
ビス
  6
CONTINUOUS
 62
     5
 10
46.246020616422868
 20
178.6257571936021122
 30
0.0
 11
46.2460206164230385
 21
176.739026981613307
 31
0.0
  0
LINE
  5
2551F
  8
ビス
  6
CONTINUOUS
 62
     5
 10
45.4807354865666227
 20
176.739026981613307
 30
0.0
 11
45.6040898093711391
 21
176.739026981613307
 31
0.0
  0
LINE
  5
25520
  8
ビス
  6
CONTINUOUS
 62
     5
 10
47.4517046398241789
 20
178.6257571936021122
 30
0.0
 11
47.4517046398240083
 21
176.739026981613307
 31
0.0
  0
LINE
  5
25521
  8
ビス
  6
CONTINUOUS
 62
     5
 10
47.4517046398241789
 20
178.6257571936021122
 30
0.0
 11
48.0936354468759077
 21
176.739026981613307
 31
0.0
  0
LINE
  5
25522
  8
ビス
  6
CONTINUOUS
 62
     5
 10
47.5988488781234693
 20
178.5558350901420965
 30
0.0
 11
48.2169897696804171
 21
176.739026981613307
 31
0.0
  0
LINE
  5
25523
  8
ビス
  6
CONTINUOUS
 62
     5
 10
48.2169897696804171
 20
176.739026981613307
 30
0.0
 11
48.0936354468759077
 21
176.739026981613307
 31
0.0
  0
LINE
  5
25524
  8
ビス
  6
CONTINUOUS
 62
     5
 10
46.2460206164230385
 20
176.739026981613307
 30
0.0
 11
46.0988763781235775
 21
176.739026981613307
 31
0.0
  0
LINE
  5
25525
  8
ビス
  6
CONTINUOUS
 62
     5
 10
47.4517046398240083
 20
176.739026981613307
 30
0.0
 11
47.5988488781234693
 21
176.739026981613307
 31
0.0
  0
LINE
  5
25526
  8
ビス
  6
CONTINUOUS
 62
     5
 10
46.624087380987703
 20
178.1544220384031973
 30
0.0
 11
46.8751570226612486
 21
177.687922749740693
 31
0.0
  0
LINE
  5
25527
  8
ビス
  6
CONTINUOUS
 62
     5
 10
46.7058455196995368
 20
178.1587750404655992
 30
0.0
 11
46.9488605255668219
 21
177.7072416467196092
 31
0.0
  0
LINE
  5
25528
  8
ビス
  6
CONTINUOUS
 62
     5
 10
46.5073627663892282
 20
180.1864139393470907
 30
0.0
 11
47.0909848429574325
 21
179.2988771282385017
 31
0.0
  0
LINE
  5
25529
  8
ビス
  6
CONTINUOUS
 62
     5
 10
46.587860324987453
 20
180.1987860812463111
 30
0.0
 11
47.174279294225073
 21
179.3069959265779971
 31
0.0
  0
LINE
  5
2552A
  8
ビス
  6
CONTINUOUS
 62
     5
 10
47.0909848429574325
 20
179.2988771282385017
 30
0.0
 11
46.624087380987703
 21
178.1544220384031973
 31
0.0
  0
LINE
  5
2552B
  8
ビス
  6
CONTINUOUS
 62
     5
 10
47.0909848429574325
 20
179.2988771282385017
 30
0.0
 11
46.624087380987703
 21
178.1544220384031973
 31
0.0
  0
LINE
  5
2552C
  8
ビス
  6
CONTINUOUS
 62
     5
 10
47.174279294225073
 20
179.3069959265779971
 30
0.0
 11
46.7058455196995368
 21
178.1587750404655992
 31
0.0
  0
LINE
  5
2552D
  8
ビス
  6
CONTINUOUS
 62
     5
 10
47.5988488781234693
 20
176.1180492228187973
 30
0.0
 11
47.8417425867813719
 21
175.0618998120629044
 31
0.0
  0
LINE
  5
2552E
  8
ビス
  6
CONTINUOUS
 62
     5
 10
46.0988763781235775
 20
176.1180492228187973
 30
0.0
 11
45.8559826694655612
 21
175.0618998120629044
 31
0.0
  0
LINE
  5
2552F
  8
ビス
  6
CONTINUOUS
 62
     5
 10
46.8751570226612486
 20
176.5447357422605137
 30
0.0
 11
46.9488605255668219
 21
176.5447357422605137
 31
0.0
  0
LINE
  5
25530
  8
ビス
 62
     5
 10
47.5988488781234693
 20
174.5618998120629044
 30
0.0
 11
46.0988763781235775
 21
174.5618998120629044
 31
0.0
  0
LINE
  5
25531
  8
ビス
 62
     5
 10
46.8488626281235199
 20
174.5618998120629044
 30
0.0
 11
46.8488626281235199
 21
175.2581881661490115
 31
0.0
  0
LINE
  5
25532
  8
ビス
 10
46.8488626281235199
 20
174.5618998120629044
 30
0.0
 11
46.8488626281235199
 21
176.5938971462026927
 31
0.0
  0
LINE
  5
25533
  8
ビス
  6
CONTINUOUS
 62
     5
 10
97.7257177518319509
 20
181.2204666373370969
 30
0.0
 11
97.4210678915504786
 21
180.1476044921386119
 31
0.0
  0
LINE
  5
25534
  8
ビス
  6
CONTINUOUS
 62
     5
 10
97.7994212547375241
 20
181.2089126722019898
 30
0.0
 11
97.5015654501486893
 21
180.1599766340378892
 31
0.0
  0
LINE
  5
25535
  8
ビス
  6
CONTINUOUS
 62
     5
 10
97.0125815032848351
 20
178.517025642933703
 30
0.0
 11
97.0125815032848351
 21
182.2111614622490094
 31
0.0
  0
LINE
  5
25536
  8
ビス
  6
CONTINUOUS
 62
     5
 10
98.5125575032847109
 20
178.517025642933703
 30
0.0
 11
98.5125575032847109
 21
182.2111614622490094
 31
0.0
  0
LINE
  5
25537
  8
ビス
  6
CONTINUOUS
 62
     5
 10
97.615162497473591
 20
182.8217324825297112
 30
0.0
 11
97.909976509095884
 21
182.8217324825297112
 31
0.0
  0
LINE
  5
25538
  8
ビス
  6
CONTINUOUS
 62
     5
 10
97.615162497473591
 20
182.8217324825297112
 30
0.0
 11
97.0125815032848351
 21
182.2111614622490094
 31
0.0
  0
LINE
  5
25539
  8
ビス
  6
CONTINUOUS
 62
     5
 10
97.7257177518319509
 20
182.8217324825297112
 30
0.0
 11
97.7257177518319509
 21
181.2204666373370969
 31
0.0
  0
LINE
  5
2553A
  8
ビス
  6
CONTINUOUS
 62
     5
 10
97.7994212547375241
 20
182.8217324825297112
 30
0.0
 11
97.7994212547375241
 21
181.2089126722019898
 31
0.0
  0
LINE
  5
2553B
  8
ビス
  6
CONTINUOUS
 62
     5
 10
97.909976509095884
 20
182.8217324825297112
 30
0.0
 11
98.5125575032847109
 21
182.2111614622490094
 31
0.0
  0
LINE
  5
2553C
  8
ビス
  6
CONTINUOUS
 62
     5
 10
97.7888621478224991
 20
177.6491133025322995
 30
0.0
 11
97.7888621478224991
 21
176.5059262950520917
 31
0.0
  0
LINE
  5
2553D
  8
ビス
  6
CONTINUOUS
 62
     5
 10
97.8625656507280723
 20
177.6684321995111873
 30
0.0
 11
97.8625656507280723
 21
176.5059262950520917
 31
0.0
  0
LINE
  5
2553E
  8
ビス
  6
CONTINUOUS
 62
     5
 10
97.0125815032848351
 20
176.7002175344049135
 30
0.0
 11
97.0125815032848351
 21
174.5230903648545109
 31
0.0
  0
LINE
  5
2553F
  8
ビス
  6
CONTINUOUS
 62
     5
 10
98.5125540032847198
 20
176.7002175344049135
 30
0.0
 11
98.5125540032847198
 21
174.5230903648545109
 31
0.0
  0
LINE
  5
25540
  8
ビス
  6
CONTINUOUS
 62
     5
 10
97.0125815032848351
 20
178.517025642933703
 30
0.0
 11
96.3944406117278731
 21
176.7002175344049135
 31
0.0
  0
LINE
  5
25541
  8
ビス
  6
CONTINUOUS
 62
     5
 10
97.1597257415841256
 20
178.5869477463936903
 30
0.0
 11
96.5177949345324038
 21
176.7002175344049135
 31
0.0
  0
LINE
  5
25542
  8
ビス
  6
CONTINUOUS
 62
     5
 10
97.1597257415841256
 20
178.5869477463936903
 30
0.0
 11
97.1597257415842819
 21
176.7002175344049135
 31
0.0
  0
LINE
  5
25543
  8
ビス
  6
CONTINUOUS
 62
     5
 10
96.3944406117278731
 20
176.7002175344049135
 30
0.0
 11
96.5177949345324038
 21
176.7002175344049135
 31
0.0
  0
LINE
  5
25544
  8
ビス
  6
CONTINUOUS
 62
     5
 10
98.3654097649854293
 20
178.5869477463936903
 30
0.0
 11
98.3654097649852446
 21
176.7002175344049135
 31
0.0
  0
LINE
  5
25545
  8
ビス
  6
CONTINUOUS
 62
     5
 10
98.3654097649854293
 20
178.5869477463936903
 30
0.0
 11
99.0073405720371511
 21
176.7002175344049135
 31
0.0
  0
LINE
  5
25546
  8
ビス
  6
CONTINUOUS
 62
     5
 10
98.5125540032847198
 20
178.517025642933703
 30
0.0
 11
99.1306948948416675
 21
176.7002175344049135
 31
0.0
  0
LINE
  5
25547
  8
ビス
  6
CONTINUOUS
 62
     5
 10
99.1306948948416675
 20
176.7002175344049135
 30
0.0
 11
99.0073405720371511
 21
176.7002175344049135
 31
0.0
  0
LINE
  5
25548
  8
ビス
  6
CONTINUOUS
 62
     5
 10
97.1597257415842819
 20
176.7002175344049135
 30
0.0
 11
97.0125815032848351
 21
176.7002175344049135
 31
0.0
  0
LINE
  5
25549
  8
ビス
  6
CONTINUOUS
 62
     5
 10
98.3654097649852446
 20
176.7002175344049135
 30
0.0
 11
98.5125540032847198
 21
176.7002175344049135
 31
0.0
  0
LINE
  5
2554A
  8
ビス
  6
CONTINUOUS
 62
     5
 10
97.5377925061489464
 20
178.1156125911946901
 30
0.0
 11
97.7888621478224991
 21
177.6491133025322995
 31
0.0
  0
LINE
  5
2554B
  8
ビス
  6
CONTINUOUS
 62
     5
 10
97.6195506448607944
 20
178.1199655932572057
 30
0.0
 11
97.8625656507280723
 21
177.6684321995111873
 31
0.0
  0
LINE
  5
2554C
  8
ビス
  6
CONTINUOUS
 62
     5
 10
97.4210678915504786
 20
180.1476044921386119
 30
0.0
 11
98.0046899681186687
 21
179.2600676810301081
 31
0.0
  0
LINE
  5
2554D
  8
ビス
  6
CONTINUOUS
 62
     5
 10
97.5015654501486893
 20
180.1599766340378892
 30
0.0
 11
98.0879844193863164
 21
179.2681864793694899
 31
0.0
  0
LINE
  5
2554E
  8
ビス
  6
CONTINUOUS
 62
     5
 10
98.0046899681186687
 20
179.2600676810301081
 30
0.0
 11
97.5377925061489464
 21
178.1156125911946901
 31
0.0
  0
LINE
  5
2554F
  8
ビス
  6
CONTINUOUS
 62
     5
 10
98.0046899681186687
 20
179.2600676810301081
 30
0.0
 11
97.5377925061489464
 21
178.1156125911946901
 31
0.0
  0
LINE
  5
25550
  8
ビス
  6
CONTINUOUS
 62
     5
 10
98.0879844193863164
 20
179.2681864793694899
 30
0.0
 11
97.6195506448607944
 21
178.1199655932572057
 31
0.0
  0
LINE
  5
25551
  8
ビス
  6
CONTINUOUS
 62
     5
 10
98.5125540032847198
 20
176.0792397756102901
 30
0.0
 11
98.7554477119426366
 21
175.0230903648545109
 31
0.0
  0
LINE
  5
25552
  8
ビス
  6
CONTINUOUS
 62
     5
 10
97.0125815032848351
 20
176.0792397756102901
 30
0.0
 11
96.7696877946268046
 21
175.0230903648545109
 31
0.0
  0
LINE
  5
25553
  8
ビス
  6
CONTINUOUS
 62
     5
 10
97.7888621478224991
 20
176.5059262950520917
 30
0.0
 11
97.8625656507280723
 21
176.5059262950520917
 31
0.0
  0
LINE
  5
25554
  8
ビス
 62
     5
 10
98.5125540032847198
 20
174.5230903648545109
 30
0.0
 11
97.0125815032848351
 21
174.5230903648545109
 31
0.0
  0
LINE
  5
25555
  8
ビス
 62
     5
 10
97.7625677532847703
 20
174.5230903648545109
 30
0.0
 11
97.7625677532847703
 21
175.2193787189405896
 31
0.0
  0
LINE
  5
25556
  8
ビス
 10
97.7625677532847703
 20
174.5230903648545109
 30
0.0
 11
97.7625677532847703
 21
176.5550876989942992
 31
0.0
  0
LINE
  5
2590B
  8
本体1
 10
58.5705582604604587
 20
95.8325332283589262
 30
0.0
 11
58.5705582604604587
 21
89.8325332283588978
 31
0.0
  0
LINE
  5
25989
  8
本体1
 10
75.5705582604604729
 20
95.8325332283589262
 30
0.0
 11
75.5705582604604871
 21
89.8325332283588978
 31
0.0
  0
LINE
  5
2598A
  8
本体1
 10
77.3705582604604416
 20
95.8325332283589404
 30
0.0
 11
77.3705582604604558
 21
89.8325332283589262
 31
0.0
  0
LINE
  5
2598B
  8
本体1
 10
94.3705582604604558
 20
95.8325332283589546
 30
0.0
 11
94.3705582604604558
 21
89.8325332283589262
 31
0.0
  0
LINE
  5
2598C
  8
本体1
 10
94.3705582604604558
 20
95.8325332283589262
 30
0.0
 11
77.3705582604604416
 21
95.8325332283589262
 31
0.0
  0
LINE
  5
2598D
  8
本体1
 10
75.5705582604604444
 20
95.8325332283589262
 30
0.0
 11
58.5705582604604515
 21
95.8325332283588978
 31
0.0
  0
LINE
  5
2598E
  8
本体1
 10
75.5705582604604444
 20
89.8325332283588978
 30
0.0
 11
58.5705582604604587
 21
89.8325332283588978
 31
0.0
  0
LINE
  5
2598F
  8
本体1
 10
94.3705582604604558
 20
89.8325332283589262
 30
0.0
 11
77.3705582604604416
 21
89.8325332283589262
 31
0.0
  0
LINE
  5
25990
  8
本体1
 10
75.5705582604604444
 20
87.6325332283589091
 30
0.0
 11
58.5705582604604587
 21
87.6325332283588949
 31
0.0
  0
LINE
  5
25991
  8
本体1
 10
94.3705582604604558
 20
87.6325332283589091
 30
0.0
 11
77.3705582604604416
 21
87.6325332283589091
 31
0.0
  0
LINE
  5
25996
  8
本体1
 10
94.3705582604604842
 20
87.6325332283589091
 30
0.0
 11
77.3705582604604558
 21
87.6325332283589091
 31
0.0
  0
LINE
  5
25997
  8
本体1
 10
94.3705582604604842
 20
81.6325332283588949
 30
0.0
 11
77.3705582604604558
 21
81.6325332283588949
 31
0.0
  0
LINE
  5
25998
  8
本体1
 10
94.3705582604604842
 20
79.4325332283589063
 30
0.0
 11
77.3705582604604558
 21
79.4325332283589063
 31
0.0
  0
LINE
  5
25999
  8
本体1
 10
75.5705582604604729
 20
87.6325332283588949
 30
0.0
 11
58.5705582604604587
 21
87.6325332283588807
 31
0.0
  0
LINE
  5
2599A
  8
本体1
 10
75.5705582604604729
 20
81.6325332283588949
 30
0.0
 11
58.5705582604604587
 21
81.6325332283588807
 31
0.0
  0
LINE
  5
2599B
  8
本体1
 10
75.5705582604604729
 20
79.4325332283588921
 30
0.0
 11
58.5705582604604587
 21
79.4325332283588779
 31
0.0
  0
LINE
  5
2599C
  8
本体1
 10
58.5705582604604587
 20
87.6325332283588949
 30
0.0
 11
58.5705582604604587
 21
81.6325332283588807
 31
0.0
  0
LINE
  5
2599D
  8
本体1
 10
75.5705582604604729
 20
87.6325332283589091
 30
0.0
 11
75.5705582604605013
 21
81.6325332283588949
 31
0.0
  0
LINE
  5
2599E
  8
本体1
 10
77.3705582604604558
 20
87.6325332283589091
 30
0.0
 11
77.3705582604604558
 21
81.6325332283588949
 31
0.0
  0
LINE
  5
2599F
  8
本体1
 10
94.3705582604604842
 20
87.6325332283589233
 30
0.0
 11
94.3705582604604558
 21
81.6325332283588949
 31
0.0
  0
LINE
  5
259A0
  8
本体1
 10
94.3705582604604842
 20
79.4325332283588921
 30
0.0
 11
77.3705582604604558
 21
79.4325332283588921
 31
0.0
  0
LINE
  5
259A1
  8
本体1
 10
94.3705582604604842
 20
73.4325332283588921
 30
0.0
 11
77.3705582604604558
 21
73.4325332283588921
 31
0.0
  0
LINE
  5
259A3
  8
本体1
 10
75.5705582604604729
 20
79.4325332283588779
 30
0.0
 11
58.5705582604604587
 21
79.4325332283588637
 31
0.0
  0
LINE
  5
259A4
  8
本体1
 10
75.5705582604604729
 20
73.4325332283588779
 30
0.0
 11
58.5705582604604729
 21
73.4325332283588637
 31
0.0
  0
LINE
  5
259A6
  8
本体1
 10
58.5705582604604729
 20
79.4325332283588779
 30
0.0
 11
58.5705582604604729
 21
73.4325332283588637
 31
0.0
  0
LINE
  5
259A7
  8
本体1
 10
75.5705582604604871
 20
79.4325332283588921
 30
0.0
 11
75.5705582604605013
 21
73.4325332283588779
 31
0.0
  0
LINE
  5
259A8
  8
本体1
 10
77.3705582604604558
 20
79.4325332283589063
 30
0.0
 11
77.37055826046047
 21
73.4325332283588921
 31
0.0
  0
LINE
  5
259A9
  8
本体1
 10
94.3705582604604842
 20
79.4325332283589205
 30
0.0
 11
94.3705582604604558
 21
73.4325332283588921
 31
0.0
  0
LINE
  5
259AA
  8
本体1
 10
94.3705582604604842
 20
73.4325332283588779
 30
0.0
 11
77.3705582604604558
 21
73.4325332283588779
 31
0.0
  0
LINE
  5
259AD
  8
本体1
 10
75.5705582604604729
 20
73.4325332283588637
 30
0.0
 11
58.5705582604604587
 21
73.4325332283588352
 31
0.0
  0
LINE
  5
259BE
  8
本体1
 10
94.3705582604604842
 20
71.2325332283588892
 30
0.0
 11
77.3705582604604558
 21
71.2325332283588892
 31
0.0
  0
LINE
  5
259BF
  8
本体1
 10
75.5705582604604729
 20
71.232533228358875
 30
0.0
 11
58.5705582604604729
 21
71.2325332283588608
 31
0.0
  0
LINE
  5
259C0
  8
本体1
 10
94.3705582604604984
 20
71.232533228358875
 30
0.0
 11
77.37055826046047
 21
71.232533228358875
 31
0.0
  0
LINE
  5
259C1
  8
本体1
 10
94.3705582604604984
 20
65.232533228358875
 30
0.0
 11
77.37055826046047
 21
65.232533228358875
 31
0.0
  0
LINE
  5
259C2
  8
本体1
 10
94.3705582604604984
 20
63.0325332283588722
 30
0.0
 11
77.37055826046047
 21
63.0325332283588722
 31
0.0
  0
LINE
  5
259C3
  8
本体1
 10
75.5705582604604871
 20
71.2325332283588608
 30
0.0
 11
58.5705582604604729
 21
71.2325332283588466
 31
0.0
  0
LINE
  5
259C4
  8
本体1
 10
75.5705582604604871
 20
65.2325332283588608
 30
0.0
 11
58.57055826046048
 21
65.2325332283588466
 31
0.0
  0
LINE
  5
259C5
  8
本体1
 10
75.5705582604604871
 20
63.0325332283588509
 30
0.0
 11
58.57055826046048
 21
63.0325332283588367
 31
0.0
  0
LINE
  5
259C6
  8
本体1
 10
58.57055826046048
 20
71.2325332283588608
 30
0.0
 11
58.57055826046048
 21
65.2325332283588466
 31
0.0
  0
LINE
  5
259C7
  8
本体1
 10
75.5705582604604871
 20
71.232533228358875
 30
0.0
 11
75.5705582604605155
 21
65.2325332283588608
 31
0.0
  0
LINE
  5
259C8
  8
本体1
 10
77.37055826046047
 20
71.2325332283588892
 30
0.0
 11
77.37055826046047
 21
65.232533228358875
 31
0.0
  0
LINE
  5
259C9
  8
本体1
 10
94.3705582604604984
 20
71.2325332283589034
 30
0.0
 11
94.3705582604604558
 21
65.232533228358875
 31
0.0
  0
LINE
  5
259CA
  8
本体1
 10
94.3705582604604984
 20
63.0325332283588509
 30
0.0
 11
77.37055826046047
 21
63.0325332283588509
 31
0.0
  0
LINE
  5
259CB
  8
本体1
 10
94.3705582604604984
 20
57.032533228358858
 30
0.0
 11
77.37055826046047
 21
57.032533228358858
 31
0.0
  0
LINE
  5
259CC
  8
本体1
 10
75.5705582604604871
 20
63.0325332283588367
 30
0.0
 11
58.57055826046048
 21
63.0325332283588295
 31
0.0
  0
LINE
  5
259CD
  8
本体1
 10
75.5705582604604871
 20
57.0325332283588367
 30
0.0
 11
58.5705582604604871
 21
57.0325332283588295
 31
0.0
  0
LINE
  5
259CE
  8
本体1
 10
58.5705582604604871
 20
63.0325332283588367
 30
0.0
 11
58.5705582604604871
 21
57.0325332283588295
 31
0.0
  0
LINE
  5
259CF
  8
本体1
 10
75.5705582604605013
 20
63.0325332283588509
 30
0.0
 11
75.5705582604605155
 21
57.0325332283588367
 31
0.0
  0
LINE
  5
259D0
  8
本体1
 10
77.37055826046047
 20
63.0325332283588722
 30
0.0
 11
77.3705582604604842
 21
57.032533228358858
 31
0.0
  0
LINE
  5
259D1
  8
本体1
 10
94.3705582604604984
 20
63.0325332283588935
 30
0.0
 11
94.3705582604604842
 21
57.032533228358858
 31
0.0
  0
LINE
  5
259D2
  8
本体1
 10
94.3705582604604984
 20
57.0325332283588367
 30
0.0
 11
77.37055826046047
 21
57.0325332283588367
 31
0.0
  0
LINE
  5
259D3
  8
本体1
 10
75.5705582604604871
 20
57.0325332283588295
 30
0.0
 11
58.57055826046048
 21
57.0325332283588082
 31
0.0
  0
LINE
  5
25A37
  8
本体1
 10
97.470558260460507
 20
113.2325332283589034
 30
0.0
 11
97.470558260460507
 21
53.2325332283589177
 31
0.0
  0
LINE
  5
25F08
  8
注釈
 10
72.1842447424598532
 20
135.2974320466119877
 30
0.0
 11
129.5967003812911003
 21
135.2974320466119877
 31
0.0
  0
LINE
  5
25F09
  8
注釈
 10
72.0452046646027924
 20
129.4228722463749932
 30
0.0
 11
109.5857516619253005
 21
129.4228722463749932
 31
0.0
  0
LINE
  5
26081
  8
PL2
 10
211.3917893154699925
 20
78.612998007566901
 30
0.0
 11
210.7251226488033922
 21
78.612998007566901
 31
0.0
  0
LINE
  5
26082
  8
PL2
 10
210.7251226488033922
 20
68.612998007566901
 30
0.0
 11
211.3917893154699925
 21
68.612998007566901
 31
0.0
  0
LINE
  5
26085
  8
PL9
 10
211.3962170810480075
 20
60.289287495693749
 30
0.0
 11
211.3966168162606039
 21
100.9929268815572954
 31
0.0
  0
LINE
  5
260CE
  8
寸法
 10
210.0584559821367066
 20
64.1959255437509597
 30
0.0
 11
207.4710847204260062
 21
64.1959255437509597
 31
0.0
  0
LINE
  5
26159
  8
注釈
 10
216.3823268906631085
 20
100.9929268815572954
 30
0.0
 11
213.3439229366425138
 21
100.9929268815572954
 31
0.0
  0
LINE
  5
2615A
  8
注釈
 10
216.3823268906631085
 20
101.8262602148905955
 30
0.0
 11
212.9987449679985048
 21
101.8262602148905955
 31
0.0
  0
LINE
  5
2615B
  8
注釈
 10
211.700945540597786
 20
100.9929268815572954
 30
0.0
 11
208.8372195265291964
 21
100.9929268815572954
 31
0.0
  0
LINE
  5
2615C
  8
注釈
 10
211.3557675719532085
 20
101.8262602148905955
 30
0.0
 11
208.8372195265291964
 21
101.8262602148905955
 31
0.0
  0
LINE
  5
2615D
  8
注釈
 10
212.9987449679985048
 20
101.8262602148905955
 30
0.0
 11
212.7605896033091994
 21
101.5881048502021002
 31
0.0
  0
LINE
  5
2615E
  8
注釈
 10
213.3439229366425138
 20
100.9929268815572954
 30
0.0
 11
212.7605896033091994
 21
100.4095935482239952
 31
0.0
  0
LINE
  5
2615F
  8
注釈
 10
211.9391009052864945
 20
101.2310822462467996
 30
0.0
 11
211.700945540597786
 21
100.9929268815572954
 31
0.0
  0
LINE
  5
26160
  8
注釈
 10
211.9391009052864945
 20
101.2310822462467996
 30
0.0
 11
212.7605896033091994
 21
100.4095935482239952
 31
0.0
  0
LINE
  5
26161
  8
注釈
 10
211.9391009052864945
 20
102.4095935482239952
 30
0.0
 11
211.3557675719532085
 21
101.8262602148905955
 31
0.0
  0
LINE
  5
26162
  8
注釈
 10
211.9391009052864945
 20
102.4095935482239952
 30
0.0
 11
212.7605896033091994
 21
101.5881048502021002
 31
0.0
  0
LINE
  5
26163
  8
壁
 10
214.8270168904977879
 20
101.8262602148905955
 30
0.0
 11
214.8270168904977879
 21
108.9578202199965062
 31
0.0
  0
LINE
  5
26164
  8
PL2
 10
213.8270168904977879
 20
101.826260214890695
 30
0.0
 11
213.8270168904977879
 21
108.9578202199965062
 31
0.0
  0
LINE
  5
26165
  8
PL2
 10
212.8270168904977879
 20
101.654532137390504
 30
0.0
 11
212.8270168904977879
 21
108.9578202199965062
 31
0.0
  0
LINE
  5
26166
  8
PL4
 10
212.0627263188731888
 20
102.2859681346373009
 30
0.0
 11
212.0627263188733025
 21
124.1953030410107033
 31
0.0
  0
LINE
  5
26167
  8
PL9
 10
211.3966254013649007
 20
101.8671180443023019
 30
0.0
 11
211.3968414208804916
 21
124.1969635406339023
 31
0.0
  0
LINE
  5
26168
  8
PL2
 10
211.3851011734410008
 20
101.8555938163785015
 30
0.0
 11
211.3851011734410861
 21
106.6217937953517065
 31
0.0
  0
LINE
  5
26169
  8
PL2
 10
210.7184345067745141
 20
101.8262602148905955
 30
0.0
 11
210.7184345067744005
 21
111.6217937953517065
 31
0.0
  0
LINE
  5
2616A
  8
PL2
 10
210.0517678401076864
 20
100.9929268815572954
 30
0.0
 11
210.0517678401076864
 21
91.6217937953517776
 31
0.0
  0
LINE
  5
2616B
  8
PL1
 10
210.0514009477408024
 20
101.8262602148905955
 30
0.0
 11
210.0502230166960942
 21
108.9578202199965062
 31
0.0
  0
LINE
  5
2616C
  8
PL9
 10
209.7904799146784001
 20
100.9929268815572954
 30
0.0
 11
209.7640208279071032
 21
51.529669491443272
 31
0.0
  0
LINE
  5
26540
  8
注釈
 10
84.7612299470456492
 20
119.5153869244091993
 30
0.0
 11
136.5033753003785932
 21
119.5153869244091993
 31
0.0
  0
TEXT
  5
26541
  8
注釈
 10
85.2733454038152558
 20
120.1934903733739048
 30
0.0
 40
3.0
  1
アルミt1曲加工アルマイト仕上
  7
角ゴ
  0
TEXT
  5
2657B
  8
枠文字
 10
165.3507434967858956
 20
27.6323317792349599
 30
0.0
 40
2.399999999999999
  1
外来担当医勤務日時掲示板
  0
TEXT
  5
26746
  8
注釈
 10
264.9642931742870928
 20
162.4780861829351863
 30
0.0
 40
2.9999999999999978
  1
UV印刷
  7
角ゴ
  0
LINE
  5
2676E
  8
寸法
 10
225.5548143778250108
 20
123.0542865772525971
 30
0.0
 11
293.0185918447231757
 21
123.0542865772525971
 31
0.0
  0
LINE
  5
26791
  8
本体2
 10
212.8158183170683913
 20
127.1107416010968052
 30
0.0
 11
212.8270168904977879
 21
132.1107290602764124
 31
0.0
  0
LINE
  5
26792
  8
本体2
 10
212.4167152062084938
 20
127.5116364837055016
 30
0.0
 11
212.4261220078892052
 21
131.7116259494164012
 31
0.0
  0
LINE
  5
26793
  8
本体2
 10
212.4167152062084938
 20
127.5116364837055016
 30
0.0
 11
210.790052619488705
 21
127.5152797529278956
 31
0.0
  0
ARC
  5
26794
  8
本体2
 10
210.7899630309013048
 20
127.4752798532545057
 30
0.0
 40
0.04
 50
89.871673693897506
 51
179.8716736939024088
  0
LINE
  5
26795
  8
本体2
 10
212.8158183170683913
 20
127.1107416010968052
 30
0.0
 11
211.4158218284981956
 21
127.1138772016571039
 31
0.0
  0
LINE
  5
26796
  8
本体2
 10
210.7499631312279007
 20
127.4753694418419059
 30
0.0
 11
210.7491568339409014
 21
127.1153703447809988
 31
0.0
  0
ARC
  5
26797
  8
本体2
 10
211.0824893312195911
 20
127.1146237732189945
 30
0.0
 40
0.3333333333332953
 50
179.8716736939036025
 51
359.8716736938974918
  0
LINE
  5
26798
  8
本体2
 10
212.8270168904977879
 20
132.1107290602764124
 30
0.0
 11
212.0043692230281067
 21
132.1125715609599069
 31
0.0
  0
LINE
  5
26799
  8
本体2
 10
212.4261220078892052
 20
131.7116259494164012
 30
0.0
 11
211.7327904135495942
 21
131.7131788182653054
 31
0.0
  0
ARC
  5
2679A
  8
本体2
 10
211.732880002137108
 20
131.7531787179387095
 30
0.0
 40
0.04
 50
179.8716736938974918
 51
269.8716736938974918
  0
LINE
  5
2679B
  8
本体2
 10
211.6928801024635902
 20
131.7532683065261949
 30
0.0
 11
211.6929398281885994
 21
131.7799349063085117
 31
0.0
  0
ARC
  5
2679C
  8
本体2
 10
211.4262738303656874
 20
131.7805321635580071
 30
0.0
 40
0.2666666666666666
 50
359.8716736938974918
 51
179.8716736938974918
  0
ARC
  5
2679D
  8
本体2
 10
211.4262738303656874
 20
131.7805321635580071
 30
0.0
 40
0.6666666666666665
 50
29.8716736938987708
 51
179.8716736938974918
  0
LINE
  5
2679E
  8
本体2
 10
211.1596078325428039
 20
131.7811294208075878
 30
0.0
 11
211.1587119466684044
 21
131.3811304240732056
 31
0.0
  0
LINE
  5
2679F
  8
本体2
 10
210.7596088358083932
 20
131.7820253066819873
 30
0.0
 11
210.7587129499339937
 21
131.3820263099476051
 31
0.0
  0
ARC
  5
267A0
  8
本体2
 10
210.9587945711730015
 20
131.4182449417110945
 30
0.0
 40
0.2033333333333535
 50
190.2605315093856859
 51
349.4828158784088146
  0
LINE
  5
267A1
  8
本体2
 10
212.8158183170683913
 20
57.3755108335774509
 30
0.0
 11
212.8270168904977879
 21
52.3755233743978721
 31
0.0
  0
LINE
  5
267A2
  8
本体2
 10
212.4167152062084938
 20
56.9746159509687473
 30
0.0
 11
212.4261220078892052
 21
52.774626485257869
 31
0.0
  0
LINE
  5
267A3
  8
本体2
 10
212.4167152062084938
 20
56.9746159509687473
 30
0.0
 11
210.790052619488705
 21
56.9709726817463817
 31
0.0
  0
ARC
  5
267A4
  8
本体2
 10
210.7899630309013048
 20
57.0109725814198072
 30
0.0
 40
0.04
 50
180.1283263060975912
 51
270.1283263061025082
  0
LINE
  5
267A5
  8
本体2
 10
212.8158183170683913
 20
57.3755108335774509
 30
0.0
 11
211.4158218284981956
 21
57.372375233017209
 31
0.0
  0
LINE
  5
267A6
  8
本体2
 10
210.7499631312279007
 20
57.0108829928323786
 30
0.0
 11
210.7491568339409014
 21
57.3708820898932785
 31
0.0
  0
ARC
  5
267A7
  8
本体2
 10
211.0824893312195911
 20
57.3716286614552402
 30
0.0
 40
0.3333333333332954
 50
0.1283263061025115
 51
180.1283263060969944
  0
LINE
  5
267A8
  8
本体2
 10
212.8270168904977879
 20
52.3755233743978721
 30
0.0
 11
212.0043692230281067
 21
52.3736808737144273
 31
0.0
  0
LINE
  5
267A9
  8
本体2
 10
212.4261220078892052
 20
52.774626485257869
 30
0.0
 11
211.7327904135495942
 21
52.7730736164089933
 31
0.0
  0
ARC
  5
267AA
  8
本体2
 10
211.732880002137108
 20
52.7330737167355466
 30
0.0
 40
0.04
 50
90.1283263061025082
 51
180.1283263061025082
  0
LINE
  5
267AB
  8
本体2
 10
211.6928801024635902
 20
52.732984128148118
 30
0.0
 11
211.6929398281885994
 21
52.706317528365787
 31
0.0
  0
ARC
  5
267AC
  8
本体2
 10
211.4262738303656874
 20
52.7057202711162631
 30
0.0
 40
0.2666666666666666
 50
180.1283263061025082
 51
0.1283263061025115
  0
ARC
  5
267AD
  8
本体2
 10
211.4262738303656874
 20
52.7057202711162631
 30
0.0
 40
0.6666666666666666
 50
180.1283263061025082
 51
330.1283263061006892
  0
LINE
  5
267AE
  8
本体2
 10
211.1596078325428039
 20
52.7051230138666895
 30
0.0
 11
211.1587119466684044
 21
53.1051220106010575
 31
0.0
  0
LINE
  5
267AF
  8
本体2
 10
210.7596088358083932
 20
52.7042271279923327
 30
0.0
 11
210.7587129499339937
 21
53.1042261247267007
 31
0.0
  0
ARC
  5
267B0
  8
本体2
 10
210.9587945711730015
 20
53.0680074929631616
 30
0.0
 40
0.2033333333333536
 50
10.5171841215906596
 51
169.7394684906143141
  0
ARC
  5
267B1
  8
LAYER_1
 10
224.068805894100791
 20
27.7809298080413001
 30
0.0
 40
4.061787112191297
 50
89.774561763963888
 51
107.409214712158402
  0
ARC
  5
267B2
  8
LAYER_1
 10
224.3020651098293001
 20
26.9635748952208303
 30
0.0
 40
4.9115397849239049
 50
107.1528779447292976
 51
122.7041694407162993
  0
ARC
  5
267B3
  8
LAYER_1
 10
224.5286192437878867
 20
26.5778719137726007
 30
0.0
 40
5.3585348111072273
 50
122.5143026686880035
 51
151.4422313375411022
  0
ARC
  5
267B4
  8
LAYER_1
 10
223.7697868977178075
 20
27.0470716078306417
 30
0.0
 40
4.4679996454203152
 50
152.075204693492509
 51
162.4664431061260927
  0
ARC
  5
267B5
  8
LAYER_1
 10
221.1979955526767014
 20
22.5758951852184815
 30
0.0
 40
6.0573570764214688
 50
106.1869913766925038
 51
120.5565189679150961
  0
ARC
  5
267B6
  8
LAYER_1
 10
221.5094344585048987
 20
22.0076130293205985
 30
0.0
 40
6.705084634301282
 50
120.379471610670393
 51
134.0270165613266897
  0
ARC
  5
267B7
  8
LAYER_1
 10
221.4023437572523108
 20
22.107234588742589
 30
0.0
 40
6.5590323467368092
 50
133.959205507972797
 51
147.0394581793796931
  0
ARC
  5
267B8
  8
LAYER_1
 10
220.7726593591040967
 20
22.5249772824084715
 30
0.0
 40
5.8034262729809054
 50
147.117632338662105
 51
161.2393342340184006
  0
ARC
  5
267B9
  8
LAYER_1
 10
220.3141014707904901
 20
22.7102251949922191
 30
0.0
 40
5.309726234547048
 50
161.5406806768095009
 51
164.7130144987235951
  0
ARC
  5
267BA
  8
LAYER_1
 10
219.5666573686218896
 20
22.9037772318230886
 30
0.0
 40
4.537709773950299
 50
164.5821658495225108
 51
181.1379416725700082
  0
ARC
  5
267BB
  8
LAYER_1
 10
220.5501477357346118
 20
19.6685174745205416
 30
0.0
 40
6.3534002066741371
 50
136.1264810532690035
 51
150.3280710889852969
  0
ARC
  5
267BC
  8
LAYER_1
 10
220.8302832146015078
 20
19.4212459532016091
 30
0.0
 40
6.7267368484317149
 50
116.790182265002997
 51
136.2619295844910141
  0
ARC
  5
267BD
  8
LAYER_1
 10
220.4573211973531954
 20
20.1296921183038187
 30
0.0
 40
5.9262456128093781
 50
102.7486763840949067
 51
116.6585473969473981
  0
ARC
  5
267BE
  8
LAYER_1
 10
220.2383601584749897
 20
21.0134598710990588
 30
0.0
 40
5.0159800657089448
 50
89.7876254855108442
 51
102.5369260245075935
  0
ARC
  5
267BF
  8
LAYER_1
 10
220.2452569386246068
 20
21.9545075783219197
 30
0.0
 40
4.0749146849236491
 50
71.5301524228399046
 51
89.8355527737687538
  0
ARC
  5
267C0
  8
LAYER_1
 10
220.4549290110971924
 20
22.6630614169574685
 30
0.0
 40
3.3365310435697562
 50
52.9188080242145418
 51
71.0905070443366895
  0
ARC
  5
267C1
  8
LAYER_1
 10
220.5541540050915046
 20
22.8370521523050307
 30
0.0
 40
3.1380026865223201
 50
14.1771758758087394
 51
52.4486940522762808
  0
ARC
  5
267C2
  8
LAYER_1
 10
220.046489001662593
 20
22.6850765472159495
 30
0.0
 40
3.667499954995777
 50
1.3016898158341681
 51
14.5366375127989897
  0
ARC
  5
267C3
  8
LAYER_1
 10
218.8459757162497112
 20
25.5525159667496808
 30
0.0
 40
5.6071110217436386
 50
330.2289952864763904
 51
344.3549355515215211
  0
ARC
  5
267C4
  8
LAYER_1
 10
219.8678531167651897
 20
25.2538666220207517
 30
0.0
 40
4.5425703299292506
 50
344.5063870698654114
 51
1.6792785180651
  0
ARC
  5
267C5
  8
LAYER_1
 10
220.7801004865715981
 20
25.2554379224606897
 30
0.0
 40
3.6307558962827229
 50
2.0763637151197138
 51
19.7748915182061502
  0
ARC
  5
267C6
  8
LAYER_1
 10
221.2163871405614088
 20
25.3930797739441516
 30
0.0
 40
3.1736812024536269
 50
20.1013340273332908
 51
39.2240270737053933
  0
ARC
  5
267C7
  8
LAYER_1
 10
221.2484931436428894
 20
25.3976497436119395
 30
0.0
 40
3.1459641599956858
 50
39.5293078670283577
 51
67.8762855878639328
  0
ARC
  5
267C8
  8
LAYER_1
 10
221.0193664746649915
 20
24.8812052248787907
 30
0.0
 40
3.7107177039315591
 50
67.6020632938591461
 51
83.9860200889705055
  0
ARC
  5
267C9
  8
LAYER_1
 10
220.9205931195845949
 20
24.1862354694815593
 30
0.0
 40
4.4122843997494732
 50
83.6559656790470143
 51
89.596544530868087
  0
ARC
  5
267CA
  8
LAYER_1
 10
220.920690100190086
 20
23.7723211486980901
 30
0.0
 40
4.8261887154397582
 50
89.6322976021641153
 51
95.2458690883205179
  0
ARC
  5
267CB
  8
LAYER_1
 10
223.9547593247704071
 20
24.5310061623092288
 30
0.0
 40
5.3346459310121892
 50
114.639532739941302
 51
130.6520302684546948
  0
ARC
  5
267CC
  8
LAYER_1
 10
223.6340096316818062
 20
25.2107639513398389
 30
0.0
 40
4.583065110157964
 50
98.6552813760409464
 51
114.5376629644432001
  0
ARC
  5
267CD
  8
LAYER_1
 10
223.5020772039592885
 20
25.920404104479509
 30
0.0
 40
3.8617245161693941
 50
89.6240271361895822
 51
98.3045851978559142
  0
ARC
  5
267CE
  8
LAYER_1
 10
223.5208206725058062
 20
26.5489882812696898
 30
0.0
 40
3.2330639281711528
 50
69.583717067257524
 51
89.8830917558541245
  0
ARC
  5
267CF
  8
LAYER_1
 10
223.7115270674796932
 20
27.1317990697444991
 30
0.0
 40
2.6204531985407669
 50
47.8639240972346727
 51
69.0462712422311711
  0
ARC
  5
267D0
  8
LAYER_1
 10
223.7653603592789864
 20
27.2224598898914785
 30
0.0
 40
2.5171937255588661
 50
14.8896963289754805
 51
47.3881179982457326
  0
ARC
  5
267D1
  8
LAYER_1
 10
223.3639657125166877
 20
27.0993453378509699
 30
0.0
 40
2.9367885685471888
 50
1.296433486943511
 51
15.1987052863237402
  0
ARC
  5
267D2
  8
LAYER_1
 10
222.4205119758933051
 20
29.3887853618692816
 30
0.0
 40
4.471258562890327
 50
330.1867708438143723
 51
344.3996031047547035
  0
ARC
  5
267D3
  8
LAYER_1
 10
223.2647295359309112
 20
29.1500471394859808
 30
0.0
 40
3.593939529468912
 50
344.4460081624778809
 51
3.8880235407985779
  0
ARC
  5
267D4
  8
LAYER_1
 10
224.0275274458460046
 20
29.1752716298745192
 30
0.0
 40
2.8313113742845251
 50
4.4254396626594863
 51
24.0157455462446414
  0
ARC
  5
267D5
  8
LAYER_1
 10
224.2854590506019008
 20
29.2471442128618087
 30
0.0
 40
2.5667579635053799
 50
24.8935828837757498
 51
77.5636605950931823
  0
ARC
  5
267D6
  8
LAYER_1
 10
224.0751169752352894
 20
28.5275560875471115
 30
0.0
 40
3.3151434965926629
 50
76.6918721903346636
 51
89.8328632735586439
  0
ARC
  5
267D7
  8
LAYER_1
 10
226.4493444682277925
 20
22.1182187812742299
 30
0.0
 40
0.1017225618467114
 50
286.824711691118921
 51
340.3071140254266993
  0
ARC
  5
267D8
  8
LAYER_1
 10
225.9798568294388872
 20
23.265684317066281
 30
0.0
 40
1.3410977289569821
 50
278.5628068442235872
 51
291.8409640360941921
  0
ARC
  5
267D9
  8
LAYER_1
 10
224.7718608487570009
 20
30.1318944829439097
 30
0.0
 40
8.3124184001315609
 50
274.304231162765916
 51
279.7498093500590812
  0
ARC
  5
267DA
  8
LAYER_1
 10
223.0647660249439923
 20
51.0966234789727025
 30
0.0
 40
29.3464226217220805
 50
269.5576446168324765
 51
274.5557542030002196
  0
ARC
  5
267DB
  8
LAYER_1
 10
222.7392301311861047
 20
55.9901434781620893
 30
0.0
 40
34.2392110303409112
 50
266.6954060207447128
 51
270.1656119244287879
  0
ARC
  5
267DC
  8
LAYER_1
 10
221.3888247687359012
 20
34.2117443882081318
 30
0.0
 40
12.4195286846716701
 50
261.7201575595116196
 51
267.1233650928995189
  0
ARC
  5
267DD
  8
LAYER_1
 10
219.7455323097161966
 20
23.3587916721014217
 30
0.0
 40
1.444439721870578
 50
247.0093839856139937
 51
264.2298997619965917
  0
ARC
  5
267DE
  8
LAYER_1
 10
219.1978457248455925
 20
22.09437316208518
 30
0.0
 40
0.067336301869921
 50
188.9129687224925078
 51
255.8306195217344055
  0
ARC
  5
267DF
  8
LAYER_1
 10
219.2269756698200922
 20
22.0495798579431188
 30
0.0
 40
0.101637479376685
 50
106.7686079684284977
 51
160.2406452734423965
  0
ARC
  5
267E0
  8
LAYER_1
 10
219.6966753306587066
 20
20.9004742950074309
 30
0.0
 40
1.342605501712774
 50
98.5609779356338436
 51
111.819411560531293
  0
ARC
  5
267E1
  8
LAYER_1
 10
220.9049248675061961
 20
14.0247861306166097
 30
0.0
 40
8.3233091265428403
 50
94.3019068433134748
 51
99.7399707080134021
  0
ARC
  5
267E2
  8
LAYER_1
 10
222.6117811129178961
 20
-6.9499654041527243
 30
0.0
 40
29.3672837109763805
 50
89.5582556005597041
 51
94.5529850135230561
  0
ARC
  5
267E3
  8
LAYER_1
 10
222.9365393013912922
 20
-11.8407621297852206
 30
0.0
 40
34.2573487630387916
 50
86.6963356821013349
 51
90.1644778980448649
  0
ARC
  5
267E4
  8
LAYER_1
 10
224.2870101007204084
 20
9.9346970587985979
 30
0.0
 40
12.4406029876012507
 50
81.7316747771048
 51
87.1262815684749938
  0
ARC
  5
267E5
  8
LAYER_1
 10
225.9306791940670109
 20
20.8062374265267884
 30
0.0
 40
1.4470717268548641
 50
67.0437654305045641
 51
84.2331262618125862
  0
ARC
  5
267E6
  8
LAYER_1
 10
226.4786957536431089
 20
22.0734932626511586
 30
0.0
 40
0.0672383483216169
 50
8.9385958680350353
 51
75.8986854981506696
  0
LINE
  5
267E7
  8
LAYER_1
 10
228.1375775207903871
 20
28.7225204792225703
 30
0.0
 11
230.7796625207903105
 21
28.7225204792225703
 31
0.0
  0
ARC
  5
267E8
  8
LAYER_1
 10
230.8318584718875002
 20
27.2985058150332094
 30
0.0
 40
1.4249709404536131
 50
60.8735246432738606
 51
92.0991844703550697
  0
ARC
  5
267E9
  8
LAYER_1
 10
231.1177159433757993
 20
27.9219598884537703
 30
0.0
 40
0.7431625185416341
 50
37.62127235789022
 51
56.7259719698191134
  0
ARC
  5
267EA
  8
LAYER_1
 10
231.014827506241005
 20
27.8459565920708805
 30
0.0
 40
0.8710559495582748
 50
357.4156439143682746
 51
37.4497418045678714
  0
ARC
  5
267EB
  8
LAYER_1
 10
230.5483121424057913
 20
27.8530183472261612
 30
0.0
 40
1.3374883172564449
 50
345.4682483048349013
 51
358.0145653240612091
  0
ARC
  5
267EC
  8
LAYER_1
 10
230.3913929759623045
 20
27.8821290350189699
 30
0.0
 40
1.4967336548623651
 50
312.6089194964864078
 51
345.8967725871881953
  0
ARC
  5
267ED
  8
LAYER_1
 10
230.3894220428784934
 20
27.9102028720515101
 30
0.0
 40
1.51883152640237
 50
286.9040539110612826
 51
311.9466621261055934
  0
ARC
  5
267EE
  8
LAYER_1
 10
230.5955114535759947
 20
25.4391165856903001
 30
0.0
 40
1.044776069903125
 50
40.4744827001058667
 51
76.97086695971214
  0
ARC
  5
267EF
  8
LAYER_1
 10
230.8440239281736979
 20
25.7189519564488585
 30
0.0
 40
0.6760589036467471
 50
27.044637974328321
 51
36.100742557310447
  0
ARC
  5
267F0
  8
LAYER_1
 10
230.5810001280289896
 20
25.6166042131726606
 30
0.0
 40
0.9572801154066004
 50
347.3279552664341168
 51
25.3423825027549796
  0
ARC
  5
267F1
  8
LAYER_1
 10
229.9480039624635879
 20
25.6593159102747705
 30
0.0
 40
1.5872056216746311
 50
345.4000175847805281
 51
350.8385374984778764
  0
ARC
  5
267F2
  8
LAYER_1
 10
229.7697472225017918
 20
25.6886494958788205
 30
0.0
 40
1.7671778740758091
 50
321.2570294209676263
 51
345.9365033352602268
  0
ARC
  5
267F3
  8
LAYER_1
 10
229.7219691973122053
 20
25.7167442482525601
 30
0.0
 40
1.8220428700690381
 50
297.9590868388690978
 51
321.5082199876162008
  0
ARC
  5
267F4
  8
LAYER_1
 10
229.8499317649294937
 20
25.6234442833248011
 30
0.0
 40
1.68106690509749
 50
275.1259550640331213
 51
295.5970031780291833
  0
LINE
  5
267F5
  8
LAYER_1
 10
230.000127520790187
 20
23.9491004792225795
 30
0.0
 11
229.3508225207903024
 21
23.8828604792224688
 31
0.0
  0
LINE
  5
267F6
  8
LAYER_1
 10
229.3508225207903024
 20
23.8828604792224688
 30
0.0
 11
226.9143875207901999
 21
23.8828604792224688
 31
0.0
  0
LINE
  5
267F7
  8
LAYER_1
 10
226.9143875207901999
 20
23.8828604792224688
 30
0.0
 11
228.1375775207903871
 21
28.7225204792225703
 31
0.0
  0
LINE
  5
267F8
  8
LAYER_1
 10
228.603147520790202
 20
24.922045479222561
 30
0.0
 11
229.3221575207900003
 21
24.922045479222561
 31
0.0
  0
ARC
  5
267F9
  8
LAYER_1
 10
229.3731240423987003
 20
25.8818806129110115
 30
0.0
 40
0.9611873231517398
 50
266.9604918419499882
 51
301.1827524538215926
  0
ARC
  5
267FA
  8
LAYER_1
 10
229.483659706771391
 20
25.5785540013406205
 30
0.0
 40
0.6474756930832206
 50
306.7209793112883744
 51
346.5729458564034076
  0
ARC
  5
267FB
  8
LAYER_1
 10
229.7513961144628922
 20
25.5429126809241609
 30
0.0
 40
0.3797785170567319
 50
342.4200028029986242
 51
37.4683038372186985
  0
ARC
  5
267FC
  8
LAYER_1
 10
229.7973531446054096
 20
25.5159908963682014
 30
0.0
 40
0.3630462635295719
 50
45.2767803303608076
 51
76.0047923097400826
  0
ARC
  5
267FD
  8
LAYER_1
 10
229.5981904228212045
 20
24.746954034559419
 30
0.0
 40
1.15744347097981
 50
75.6450922392333638
 51
91.5195385004562638
  0
LINE
  5
267FE
  8
LAYER_1
 10
229.5674975207903969
 20
25.9039904792225606
 30
0.0
 11
228.8512325207904041
 21
25.9039904792225606
 31
0.0
  0
LINE
  5
267FF
  8
LAYER_1
 10
228.8512325207904041
 20
25.9039904792225606
 30
0.0
 11
228.603147520790202
 21
24.922045479222561
 31
0.0
  0
LINE
  5
26800
  8
LAYER_1
 10
229.083162520790296
 20
26.8223954792224504
 30
0.0
 11
229.6964675207902076
 21
26.8223954792224504
 31
0.0
  0
ARC
  5
26801
  8
LAYER_1
 10
229.7481643773733992
 20
27.6663742566401112
 30
0.0
 40
0.8455606079471728
 50
266.4947987045131867
 51
301.2083112159746179
  0
ARC
  5
26802
  8
LAYER_1
 10
229.8173630301830883
 20
27.4149312130863798
 30
0.0
 40
0.5988843306289116
 50
308.0266514935095756
 51
348.0771909355793241
  0
ARC
  5
26803
  8
LAYER_1
 10
230.0507442435271912
 20
27.4111514776217504
 30
0.0
 40
0.3724271874308775
 50
341.2121082091251765
 51
34.4316897395444883
  0
ARC
  5
26804
  8
LAYER_1
 10
230.1293240354295904
 20
27.4039338551861213
 30
0.0
 40
0.3157414083566255
 50
43.6138282060639924
 51
76.4411853446353717
  0
ARC
  5
26805
  8
LAYER_1
 10
229.9601762914381027
 20
26.7384918303467707
 30
0.0
 40
1.0023283929857769
 50
75.9595797490933649
 51
91.2661861993573353
  0
LINE
  5
26806
  8
LAYER_1
 10
229.9380275207900866
 20
27.7405754792225707
 30
0.0
 11
229.3153625207903019
 21
27.7405754792225707
 31
0.0
  0
LINE
  5
26807
  8
LAYER_1
 10
229.3153625207903019
 20
27.7405754792225707
 30
0.0
 11
229.083162520790296
 21
26.8223954792224504
 31
0.0
  0
LINE
  5
26808
  8
LAYER_1
 10
231.567927520790505
 20
23.8828604792224688
 30
0.0
 11
232.7909375207902087
 21
28.7225204792225703
 31
0.0
  0
LINE
  5
26809
  8
LAYER_1
 10
232.7909375207902087
 20
28.7225204792225703
 30
0.0
 11
235.1431775207902888
 21
28.7225204792225703
 31
0.0
  0
ARC
  5
2680A
  8
LAYER_1
 10
235.2596962850429065
 20
25.654804086666239
 30
0.0
 40
3.0699284173383781
 50
73.8561888366571964
 51
92.1751768912553331
  0
ARC
  5
2680B
  8
LAYER_1
 10
235.8478841199579961
 20
27.8885332230216605
 30
0.0
 40
0.7628023412243876
 50
21.0698800330394391
 51
69.6391164072336863
  0
ARC
  5
2680C
  8
LAYER_1
 10
235.4921471171626877
 20
27.7627141337018415
 30
0.0
 40
1.140036662757081
 50
345.5354904864734067
 51
20.5430428520186901
  0
ARC
  5
2680D
  8
LAYER_1
 10
234.7797617806311052
 20
27.8376290015533812
 30
0.0
 40
1.851555814057978
 50
345.6442340425383009
 51
348.7988082093490902
  0
ARC
  5
2680E
  8
LAYER_1
 10
234.8013046553406014
 20
27.8097294458260613
 30
0.0
 40
1.8238970846912439
 50
321.8539172287271981
 51
346.3255241773512125
  0
ARC
  5
2680F
  8
LAYER_1
 10
234.7468695241931869
 20
27.88524925851587
 30
0.0
 40
1.9135267020430531
 50
298.8727875022022999
 51
321.0823110538232186
  0
ARC
  5
26810
  8
LAYER_1
 10
234.7108130742828962
 20
28.0691026045448098
 30
0.0
 40
2.092718346516826
 50
281.4792839454262889
 51
297.3064737345412141
  0
ARC
  5
26811
  8
LAYER_1
 10
234.8597887873320076
 20
25.1606456187610483
 30
0.0
 40
0.8983516950935942
 50
49.0403829401645766
 51
72.676183220807971
  0
ARC
  5
26812
  8
LAYER_1
 10
234.617376959285906
 20
25.1366675438959106
 30
0.0
 40
1.0883095829221889
 50
24.2799524775041
 51
40.1951854723321489
  0
ARC
  5
26813
  8
LAYER_1
 10
234.7266759601990884
 20
25.05381487017954
 30
0.0
 40
1.029817394424557
 50
12.8736747914057599
 51
30.9977568592650101
  0
LINE
  5
26814
  8
LAYER_1
 10
235.7306075207899028
 20
25.2832604792224593
 30
0.0
 11
236.0635175207899863
 21
23.8828604792224688
 31
0.0
  0
LINE
  5
26815
  8
LAYER_1
 10
236.0635175207899863
 20
23.8828604792224688
 30
0.0
 11
234.4695275207901091
 21
23.8828604792224688
 31
0.0
  0
LINE
  5
26816
  8
LAYER_1
 10
234.4695275207901091
 20
23.8828604792224688
 30
0.0
 11
234.0883775207904876
 21
25.3617404792225898
 31
0.0
  0
ARC
  5
26817
  8
LAYER_1
 10
233.3261007465542889
 20
25.2528492532706395
 30
0.0
 40
0.7700150515601198
 50
8.1297004547847145
 51
38.7257443803312214
  0
ARC
  5
26818
  8
LAYER_1
 10
233.626298298531907
 20
25.3896644362395705
 30
0.0
 40
0.4574653460994325
 50
48.9327628569713298
 51
92.1905602036560907
  0
LINE
  5
26819
  8
LAYER_1
 10
233.6088125207899111
 20
25.8467954792224717
 30
0.0
 11
233.483757520790391
 21
25.8467954792224717
 31
0.0
  0
LINE
  5
2681A
  8
LAYER_1
 10
233.483757520790391
 20
25.8467954792224717
 30
0.0
 11
232.9875875207899867
 21
23.8828604792224688
 31
0.0
  0
LINE
  5
2681B
  8
LAYER_1
 10
232.9875875207899867
 20
23.8828604792224688
 30
0.0
 11
231.567927520790505
 21
23.8828604792224688
 31
0.0
  0
LINE
  5
2681C
  8
LAYER_1
 10
233.7144275207903092
 20
26.7584504792225708
 30
0.0
 11
234.3073475207903869
 21
26.7584504792225708
 31
0.0
  0
ARC
  5
2681D
  8
LAYER_1
 10
234.0895454637274895
 20
29.2095450016627112
 30
0.0
 40
2.4607523430846978
 50
275.0779145456456263
 51
284.2927593607810195
  0
ARC
  5
2681E
  8
LAYER_1
 10
234.5869207385161985
 20
27.3257745906177405
 30
0.0
 40
0.5127793700478258
 50
282.4017088068442831
 51
317.2691553026585893
  0
ARC
  5
2681F
  8
LAYER_1
 10
234.5232369617839936
 20
27.414508620552791
 30
0.0
 40
0.6201583485358368
 50
315.2392622451386046
 51
345.5021097717356042
  0
ARC
  5
26820
  8
LAYER_1
 10
234.7353197615603904
 20
27.3913798740513315
 30
0.0
 40
0.4101893517597064
 50
341.2096735858092984
 51
33.9824170259752165
  0
ARC
  5
26821
  8
LAYER_1
 10
234.8393789573048025
 20
27.3876551044036383
 30
0.0
 40
0.331688968860616
 50
44.6240111567865299
 51
75.8324610552365499
  0
ARC
  5
26822
  8
LAYER_1
 10
234.6196725546456037
 20
26.5465375135062196
 30
0.0
 40
1.2010195000606589
 50
75.4911943509529948
 51
91.7983342263070483
  0
LINE
  5
26823
  8
LAYER_1
 10
234.5819825207900919
 20
27.7469654792225811
 30
0.0
 11
233.9639525207905137
 21
27.7469654792225811
 31
0.0
  0
LINE
  5
26824
  8
LAYER_1
 10
233.9639525207905137
 20
27.7469654792225811
 30
0.0
 11
233.7144275207903092
 21
26.7584504792225708
 31
0.0
  0
LINE
  5
26825
  8
LAYER_1
 10
237.4691825207902127
 20
28.7225204792225703
 30
0.0
 11
238.8826775207899971
 21
28.7225204792225703
 31
0.0
  0
LINE
  5
26826
  8
LAYER_1
 10
238.8826775207899971
 20
28.7225204792225703
 30
0.0
 11
237.6593975207902929
 21
23.8828604792224688
 31
0.0
  0
LINE
  5
26827
  8
LAYER_1
 10
237.6593975207902929
 20
23.8828604792224688
 30
0.0
 11
236.2456775207903092
 21
23.8828604792224688
 31
0.0
  0
LINE
  5
26828
  8
LAYER_1
 10
236.2456775207903092
 20
23.8828604792224688
 30
0.0
 11
237.4691825207902127
 21
28.7225204792225703
 31
0.0
  0
LINE
  5
26829
  8
LAYER_1
 10
239.5943975207902952
 20
28.7225204792225703
 30
0.0
 11
241.6911725207901895
 21
28.7225204792225703
 31
0.0
  0
ARC
  5
2682A
  8
LAYER_1
 10
241.7381463538773971
 20
25.9208533434985995
 30
0.0
 40
2.8020608987655211
 50
78.6033737127260252
 51
90.9605531637776892
  0
ARC
  5
2682B
  8
LAYER_1
 10
242.0253668219669123
 20
27.3225224686068699
 30
0.0
 40
1.3712817681488589
 50
63.0020256225066078
 51
78.7950729478796035
  0
ARC
  5
2682C
  8
LAYER_1
 10
242.1139953834266976
 20
27.5205156509306406
 30
0.0
 40
1.1546831897505589
 50
26.3079137632602702
 51
62.4606229747092527
  0
ARC
  5
2682D
  8
LAYER_1
 10
241.626529319121687
 20
27.3015242231405786
 30
0.0
 40
1.6888312631082061
 50
358.4879419851997113
 51
25.6384280704623784
  0
ARC
  5
2682E
  8
LAYER_1
 10
239.5218040512652919
 20
27.2851696533160712
 30
0.0
 40
3.7930733671143928
 50
345.2483551151722736
 51
359.5738860385365001
  0
ARC
  5
2682F
  8
LAYER_1
 10
238.913000967881004
 20
27.2989672760174216
 30
0.0
 40
4.3876107241434497
 50
330.1632220771692232
 51
347.0987649110164739
  0
ARC
  5
26830
  8
LAYER_1
 10
240.263306138953908
 20
26.6750628313442313
 30
0.0
 40
2.9088158070477581
 50
308.5314921816865876
 51
327.5895969958036744
  0
ARC
  5
26831
  8
LAYER_1
 10
240.7524255533081998
 20
26.0297512795545494
 30
0.0
 40
2.0994056318545931
 50
286.3242758456004822
 51
309.0601887236048242
  0
ARC
  5
26832
  8
LAYER_1
 10
240.3882226423752968
 20
27.3712709277482098
 30
0.0
 40
3.4893200980864618
 50
271.3083192054755273
 51
285.8719752346560199
  0
LINE
  5
26833
  8
LAYER_1
 10
240.4678925207900875
 20
23.8828604792224688
 30
0.0
 11
238.3711175207901078
 21
23.8828604792224688
 31
0.0
  0
LINE
  5
26834
  8
LAYER_1
 10
238.3711175207901078
 20
23.8828604792224688
 30
0.0
 11
239.5943975207902952
 21
28.7225204792225703
 31
0.0
  0
LINE
  5
26835
  8
LAYER_1
 10
240.7306925207905124
 20
27.6256004792226086
 30
0.0
 11
240.0619025207899142
 21
24.9797354792224304
 31
0.0
  0
LINE
  5
26836
  8
LAYER_1
 10
240.0619025207899142
 20
24.9797354792224304
 30
0.0
 11
240.4062875207901868
 21
24.9797354792224304
 31
0.0
  0
ARC
  5
26837
  8
LAYER_1
 10
240.4882344087417891
 20
26.5722366112727713
 30
0.0
 40
1.5946081487395529
 50
267.0542732342340173
 51
291.0189238218827086
  0
ARC
  5
26838
  8
LAYER_1
 10
240.6097729014589959
 20
25.9438207129361693
 30
0.0
 40
0.9708882712832799
 50
297.6400244211740755
 51
329.2196595062981146
  0
ARC
  5
26839
  8
LAYER_1
 10
239.793196494577586
 20
26.4637603761098816
 30
0.0
 40
1.93873040218361
 50
328.3679858862033143
 51
341.2531074096870043
  0
ARC
  5
2683A
  8
LAYER_1
 10
236.7937655847275096
 20
27.52379462728425
 30
0.0
 40
5.1198714078097929
 50
340.8075339832130908
 51
346.0290607212377267
  0
ARC
  5
2683B
  8
LAYER_1
 10
238.9147061761026976
 20
27.0819304528803997
 30
0.0
 40
2.9561655640939879
 50
344.4150221194735764
 51
357.011912375995621
  0
ARC
  5
2683C
  8
LAYER_1
 10
241.0272555054162922
 20
26.9911654447242206
 30
0.0
 40
0.841982461860425
 50
355.6860656230011273
 51
24.60553152870391
  0
ARC
  5
2683D
  8
LAYER_1
 10
241.324491169164105
 20
27.0478658730387984
 30
0.0
 40
0.5528644265706397
 50
32.1101833226581732
 51
82.9332622479387851
  0
ARC
  5
2683E
  8
LAYER_1
 10
241.0973254739367064
 20
26.1167248169182109
 30
0.0
 40
1.5089589918127491
 50
78.7190752547131325
 51
90.6021439399230957
  0
LINE
  5
2683F
  8
LAYER_1
 10
241.0814675207903974
 20
27.6256004792226086
 30
0.0
 11
240.7306925207905124
 21
27.6256004792226086
 31
0.0
  0
LINE
  5
26840
  8
LAYER_1
 10
245.7338825207899902
 20
25.6364204792225792
 30
0.0
 11
245.9884475207902028
 21
26.643790479222389
 31
0.0
  0
LINE
  5
26841
  8
LAYER_1
 10
245.9884475207902028
 20
26.643790479222389
 30
0.0
 11
248.1681575207904871
 21
26.643790479222389
 31
0.0
  0
LINE
  5
26842
  8
LAYER_1
 10
248.1681575207904871
 20
26.643790479222389
 30
0.0
 11
247.6457075207900971
 21
24.5780204792224595
 31
0.0
  0
ARC
  5
26843
  8
LAYER_1
 10
244.3196958746804057
 20
29.8070030075130887
 30
0.0
 40
6.1971454518371596
 50
289.4458878751157727
 51
302.4593151833418005
  0
ARC
  5
26844
  8
LAYER_1
 10
245.2699130198126056
 20
27.6598054708745416
 30
0.0
 40
3.860342899066195
 50
268.9543052361939885
 51
286.7558603060326163
  0
ARC
  5
26845
  8
LAYER_1
 10
245.135989608605712
 20
26.5400413103893484
 30
0.0
 40
2.7406709341861419
 50
248.9158125929517098
 51
271.3270674414453083
  0
ARC
  5
26846
  8
LAYER_1
 10
244.6884222159148123
 20
25.1997984357025615
 30
0.0
 40
1.3307116479973771
 50
236.2206898820581955
 51
246.1361134443289984
  0
ARC
  5
26847
  8
LAYER_1
 10
244.715151919567802
 20
25.2213252591249386
 30
0.0
 40
1.363504538265123
 50
190.6768014419727137
 51
235.7900331205489977
  0
ARC
  5
26848
  8
LAYER_1
 10
245.8260165468510934
 20
25.5062776791412205
 30
0.0
 40
2.5090282592793569
 50
168.8164503810168924
 51
192.3717147671212047
  0
ARC
  5
26849
  8
LAYER_1
 10
247.4216064449001919
 20
25.293334005719629
 30
0.0
 40
4.1168488754369728
 50
165.8044784944451919
 51
170.2162460051569042
  0
ARC
  5
2684A
  8
LAYER_1
 10
247.1608298905499055
 20
25.3824328277901401
 30
0.0
 40
3.8422508665244308
 50
147.3720260493205103
 51
166.1389199531311931
  0
ARC
  5
2684B
  8
LAYER_1
 10
246.7691082996514069
 20
25.5928014377277506
 30
0.0
 40
3.399090619228458
 50
142.0941684348692888
 51
146.7982469045911103
  0
ARC
  5
2684C
  8
LAYER_1
 10
246.4422107423368118
 20
25.8548616039309209
 30
0.0
 40
2.9801665841958811
 50
114.3016217875122038
 51
142.2083025589388967
  0
ARC
  5
2684D
  8
LAYER_1
 10
246.3299992352449124
 20
25.9717523610663186
 30
0.0
 40
2.827972521464893
 50
91.1497867990332793
 51
113.2041842212337031
  0
ARC
  5
2684E
  8
LAYER_1
 10
246.509100971417098
 20
24.4050510507231593
 30
0.0
 40
4.4004293222616644
 50
89.8072760982073675
 51
93.072336323728905
  0
ARC
  5
2684F
  8
LAYER_1
 10
246.6076427525293013
 20
24.5106404750763289
 30
0.0
 40
4.2956313093945244
 50
80.8406804002742092
 51
91.1170106214636633
  0
ARC
  5
26850
  8
LAYER_1
 10
247.0704243136140974
 20
27.3192804383948804
 30
0.0
 40
1.4491702636072981
 50
67.7227908608112728
 51
81.2281772025237245
  0
ARC
  5
26851
  8
LAYER_1
 10
247.2159171882287012
 20
27.6908364908451183
 30
0.0
 40
1.0502107343714751
 50
29.6019412194257612
 51
67.383496364199317
  0
ARC
  5
26852
  8
LAYER_1
 10
246.9538672260291037
 20
27.5725659278773314
 30
0.0
 40
1.3367446418150519
 50
12.0284717446244702
 51
28.4612395169355317
  0
ARC
  5
26853
  8
LAYER_1
 10
246.229267192839302
 20
27.4215608230445191
 30
0.0
 40
2.0769072424682391
 50
0.3851088717367656
 51
11.9370111444533595
  0
LINE
  5
26854
  8
LAYER_1
 10
248.3061275207901986
 20
27.4355204792223084
 30
0.0
 11
246.8770625207899911
 21
27.1795604792223493
 31
0.0
  0
ARC
  5
26855
  8
LAYER_1
 10
246.2865935043107868
 20
27.1718937928436617
 30
0.0
 40
0.5905187867476483
 50
0.7438901580799281
 51
45.9041293427053887
  0
ARC
  5
26856
  8
LAYER_1
 10
246.3408384381608016
 20
27.1767137247195407
 30
0.0
 40
0.5504628943771991
 50
49.6125561074091195
 51
75.1740881865072623
  0
ARC
  5
26857
  8
LAYER_1
 10
246.2341263185915068
 20
26.7610722179727212
 30
0.0
 40
0.9795777952609933
 50
75.3610322459193753
 51
90.7068026431535088
  0
ARC
  5
26858
  8
LAYER_1
 10
246.2238722250322098
 20
26.5676247819848506
 30
0.0
 40
1.172952124329065
 50
90.089376515172404
 51
134.868021261145401
  0
ARC
  5
26859
  8
LAYER_1
 10
246.4387691364202908
 20
26.3202437204672215
 30
0.0
 40
1.5000485881633789
 50
134.0194005096930141
 51
149.6127741089811138
  0
ARC
  5
2685A
  8
LAYER_1
 10
247.471776705531795
 20
25.7324552806960796
 30
0.0
 40
2.6885206770994161
 50
149.9430192559258899
 51
167.4256009886480001
  0
ARC
  5
2685B
  8
LAYER_1
 10
247.6358017307152011
 20
25.5525464471757893
 30
0.0
 40
2.8911648733778028
 50
164.6523584883154001
 51
177.1184240152406915
  0
ARC
  5
2685C
  8
LAYER_1
 10
245.7628073288693997
 20
25.6280704981051883
 30
0.0
 40
1.016914512422336
 50
176.063051651654888
 51
205.1737799455270874
  0
ARC
  5
2685D
  8
LAYER_1
 10
245.3959922689332132
 20
25.5136101396172883
 30
0.0
 40
0.6384089366191932
 50
209.8855726606747112
 51
256.4482021359447117
  0
ARC
  5
2685E
  8
LAYER_1
 10
245.5216581507916089
 20
25.9709992685018101
 30
0.0
 40
1.112611210028374
 50
255.6762564748713089
 51
270.6537320487665284
  0
ARC
  5
2685F
  8
LAYER_1
 10
245.530029919138201
 20
26.4408800686137688
 30
0.0
 40
1.582425493277454
 50
270.1565110902417928
 51
287.4380551532947266
  0
ARC
  5
26860
  8
LAYER_1
 10
244.9398201779652879
 20
28.0502460501759998
 30
0.0
 40
3.2956888445078669
 50
288.8428852950617056
 51
299.4190851209161224
  0
LINE
  5
26861
  8
LAYER_1
 10
246.5586425207904142
 20
25.179535479222519
 30
0.0
 11
246.6742925207900896
 21
25.6364204792225792
 31
0.0
  0
LINE
  5
26862
  8
LAYER_1
 10
246.6742925207900896
 20
25.6364204792225792
 30
0.0
 11
245.7338825207899902
 21
25.6364204792225792
 31
0.0
  0
LINE
  5
26863
  8
LAYER_1
 10
249.2091425207900954
 20
28.7225204792225703
 30
0.0
 11
252.9886025207898967
 21
28.7225204792225703
 31
0.0
  0
LINE
  5
26864
  8
LAYER_1
 10
252.9886025207898967
 20
28.7225204792225703
 30
0.0
 11
252.7275575207900999
 21
27.6895454792224918
 31
0.0
  0
LINE
  5
26865
  8
LAYER_1
 10
252.7275575207900999
 20
27.6895454792224918
 30
0.0
 11
250.3613225207901962
 21
27.6895454792224918
 31
0.0
  0
LINE
  5
26866
  8
LAYER_1
 10
250.3613225207901962
 20
27.6895454792224918
 30
0.0
 11
250.1678675207901108
 21
26.9247254792226194
 31
0.0
  0
LINE
  5
26867
  8
LAYER_1
 10
250.1678675207901108
 20
26.9247254792226194
 30
0.0
 11
252.3660275207903965
 21
26.9247254792226194
 31
0.0
  0
LINE
  5
26868
  8
LAYER_1
 10
252.3660275207903965
 20
26.9247254792226194
 30
0.0
 11
252.1160975207905039
 21
25.9359404792226087
 31
0.0
  0
LINE
  5
26869
  8
LAYER_1
 10
252.1160975207905039
 20
25.9359404792226087
 30
0.0
 11
249.9184325207899064
 21
25.9359404792226087
 31
0.0
  0
LINE
  5
2686A
  8
LAYER_1
 10
249.9184325207899064
 20
25.9359404792226087
 30
0.0
 11
249.6764225207899983
 21
24.9797354792224304
 31
0.0
  0
LINE
  5
2686B
  8
LAYER_1
 10
249.6764225207899983
 20
24.9797354792224304
 30
0.0
 11
252.1108325207902965
 21
24.9797354792224304
 31
0.0
  0
LINE
  5
2686C
  8
LAYER_1
 10
252.1108325207902965
 20
24.9797354792224304
 30
0.0
 11
251.833632520790303
 21
23.8828604792224688
 31
0.0
  0
LINE
  5
2686D
  8
LAYER_1
 10
251.833632520790303
 20
23.8828604792224688
 30
0.0
 11
247.9856825207899931
 21
23.8828604792224688
 31
0.0
  0
LINE
  5
2686E
  8
LAYER_1
 10
247.9856825207899931
 20
23.8828604792224688
 30
0.0
 11
249.2091425207900954
 21
28.7225204792225703
 31
0.0
  0
ARC
  5
2686F
  8
LAYER_1
 10
258.3875577915899271
 20
25.3539524100548483
 30
0.0
 40
3.9858377333198041
 50
147.7525971632780113
 51
166.2771445676542044
  0
ARC
  5
26870
  8
LAYER_1
 10
257.5506092934646176
 20
25.8312419118064902
 30
0.0
 40
3.0236210073721939
 50
130.0690664146655138
 51
146.9395040129861911
  0
ARC
  5
26871
  8
LAYER_1
 10
257.4319334674401034
 20
25.9499572880069707
 30
0.0
 40
2.8564152225531552
 50
88.5481201800074302
 51
129.7802089671673968
  0
ARC
  5
26872
  8
LAYER_1
 10
257.5578038595864996
 20
26.1992810766164794
 30
0.0
 40
2.6067233982652098
 50
68.0444921811749737
 51
91.1759320652749352
  0
ARC
  5
26873
  8
LAYER_1
 10
257.9624491652695042
 20
27.3446182872490802
 30
0.0
 40
1.394165998988335
 50
37.1528396799173635
 51
65.8688005585868268
  0
ARC
  5
26874
  8
LAYER_1
 10
258.017127212633909
 20
27.404655916475491
 30
0.0
 40
1.3144104340012039
 50
34.8928281860840315
 51
36.5064144919185125
  0
ARC
  5
26875
  8
LAYER_1
 10
257.8323446342193961
 20
27.2943098315883894
 30
0.0
 40
1.529171671139063
 50
4.721339261138211
 51
34.3234785295097211
  0
ARC
  5
26876
  8
LAYER_1
 10
256.5546101878392733
 20
27.1549589957770188
 30
0.0
 40
2.8142423131008711
 50
345.0625063153801761
 51
5.407625560374246
  0
ARC
  5
26877
  8
LAYER_1
 10
255.0521059424947055
 20
27.4055504743584599
 30
0.0
 40
4.3329996056504019
 50
345.7505065124349812
 51
346.982463476560099
  0
ARC
  5
26878
  8
LAYER_1
 10
255.1078582664071916
 20
27.3335298053758393
 30
0.0
 40
4.2616041275512364
 50
328.4923948782800949
 51
346.5045268133275158
  0
ARC
  5
26879
  8
LAYER_1
 10
256.219200670165776
 20
26.7453714664581987
 30
0.0
 40
3.0077745695581628
 50
323.2952654849420924
 51
326.9805880008955228
  0
ARC
  5
2687A
  8
LAYER_1
 10
256.2931714076224807
 20
26.6812434077274396
 30
0.0
 40
2.9101504083620742
 50
301.5947601662142006
 51
323.437050097990209
  0
ARC
  5
2687B
  8
LAYER_1
 10
256.3295104268062232
 20
26.6404995844873405
 30
0.0
 40
2.8564236955994651
 50
297.2942359294659127
 51
301.4020641809069048
  0
ARC
  5
2687C
  8
LAYER_1
 10
256.4064214737338148
 20
26.5228907466493595
 30
0.0
 40
2.7166789441640979
 50
274.4903292873166833
 51
296.9901681630224175
  0
ARC
  5
2687D
  8
LAYER_1
 10
256.2966399452097903
 20
27.4067388787303514
 30
0.0
 40
3.606633618703353
 50
269.9800242771020748
 51
275.1297209886756718
  0
ARC
  5
2687E
  8
LAYER_1
 10
256.2299428249955895
 20
26.579532173166811
 30
0.0
 40
2.7801969535979869
 50
248.9055603910290984
 51
271.3487406626716734
  0
ARC
  5
2687F
  8
LAYER_1
 10
255.8756714455265069
 20
25.4159165671618794
 30
0.0
 40
1.5695361395522409
 50
239.6964235952420097
 51
245.6818838211925993
  0
ARC
  5
26880
  8
LAYER_1
 10
255.7428225328102087
 20
25.1666803237744894
 30
0.0
 40
1.287368955726123
 50
206.8460866261441993
 51
239.2040453520845915
  0
ARC
  5
26881
  8
LAYER_1
 10
256.1592851268231925
 20
25.3929846663177194
 30
0.0
 40
1.761198783842185
 50
196.722424513197609
 51
207.2963811448979072
  0
ARC
  5
26882
  8
LAYER_1
 10
256.5350418305033031
 20
25.4666194200294917
 30
0.0
 40
2.142581948199862
 50
170.161916933560093
 51
195.7169537804969082
  0
ARC
  5
26883
  8
LAYER_1
 10
258.6428321089671272
 20
25.2478166047537407
 30
0.0
 40
4.2592158031455458
 50
165.7047646944490111
 51
172.1069549229071072
  0
ARC
  5
26884
  8
LAYER_1
 10
258.524412406403485
 20
25.5728354720358304
 30
0.0
 40
2.695081430532988
 50
164.5735447702016927
 51
177.6191137185705884
  0
ARC
  5
26885
  8
LAYER_1
 10
256.7745581737640919
 20
25.6297224261341796
 30
0.0
 40
0.9445076402841619
 50
176.657259130473193
 51
204.6174517497206011
  0
ARC
  5
26886
  8
LAYER_1
 10
256.4333771460827052
 20
25.5144687176870413
 30
0.0
 40
0.5875149858623616
 50
208.2617181483086881
 51
257.2898344849895125
  0
ARC
  5
26887
  8
LAYER_1
 10
256.5239544070270199
 20
25.8816040788530515
 30
0.0
 40
0.9656123893998994
 50
256.8400107177509994
 51
270.4021908845627991
  0
ARC
  5
26888
  8
LAYER_1
 10
256.5304145043434119
 20
26.0411015856015595
 30
0.0
 40
1.125086151324209
 50
270.0161952046378246
 51
313.8545177136984989
  0
ARC
  5
26889
  8
LAYER_1
 10
256.3667025708290907
 20
26.1725595285949488
 30
0.0
 40
1.3335779702758801
 50
315.0135465053107282
 51
331.0666571105006142
  0
ARC
  5
2688A
  8
LAYER_1
 10
254.7943018105218869
 20
27.0200302142127917
 30
0.0
 40
3.1197739376619791
 50
331.4160143473537232
 51
347.7094341875402961
  0
ARC
  5
2688B
  8
LAYER_1
 10
255.5448569160541012
 20
26.9892461641967216
 30
0.0
 40
2.3833992721033428
 50
344.5901647894199868
 51
358.2366466253092199
  0
ARC
  5
2688C
  8
LAYER_1
 10
257.0171262520119058
 20
26.9568643119114206
 30
0.0
 40
0.9109225736327495
 50
357.4228767549531085
 51
25.9275214688636808
  0
ARC
  5
2688D
  8
LAYER_1
 10
257.315939896435907
 20
27.0614448226414517
 30
0.0
 40
0.597580723122688
 50
29.4386399138338817
 51
77.7618383453054776
  0
ARC
  5
2688E
  8
LAYER_1
 10
257.2211574067051174
 20
26.6770132296279989
 30
0.0
 40
0.9934301130975295
 50
77.1194225658217647
 51
90.388723851605306
  0
ARC
  5
2688F
  8
LAYER_1
 10
257.2186270888672084
 20
26.5926153699189811
 30
0.0
 40
1.0778133298971919
 50
90.2237781728035344
 51
135.350689889891413
  0
ARC
  5
26890
  8
LAYER_1
 10
257.4272365322491964
 20
26.3523729811621301
 30
0.0
 40
1.395268448851593
 50
134.3523626774768047
 51
150.3132525896095899
  0
ARC
  5
26891
  8
LAYER_1
 10
258.6236101689759721
 20
25.6887421352040093
 30
0.0
 40
2.7633279261282531
 50
150.6447260190493864
 51
167.4385154248390108
  0
LINE
  5
26892
  8
LAYER_1
 10
260.3077175207901064
 20
28.7225204792225703
 30
0.0
 11
261.6246875207900189
 21
28.7225204792225703
 31
0.0
  0
LINE
  5
26893
  8
LAYER_1
 10
261.6246875207900189
 20
28.7225204792225703
 30
0.0
 11
262.663827520790278
 21
26.048035479222559
 31
0.0
  0
LINE
  5
26894
  8
LAYER_1
 10
262.663827520790278
 20
26.048035479222559
 30
0.0
 11
263.3402225207901779
 21
28.7225204792225703
 31
0.0
  0
LINE
  5
26895
  8
LAYER_1
 10
263.3402225207901779
 20
28.7225204792225703
 30
0.0
 11
264.6728525207901157
 21
28.7225204792225703
 31
0.0
  0
LINE
  5
26896
  8
LAYER_1
 10
264.6728525207901157
 20
28.7225204792225703
 30
0.0
 11
263.4493925207900134
 21
23.8828604792224688
 31
0.0
  0
LINE
  5
26897
  8
LAYER_1
 10
263.4493925207900134
 20
23.8828604792224688
 30
0.0
 11
262.1167625207900755
 21
23.8828604792224688
 31
0.0
  0
LINE
  5
26898
  8
LAYER_1
 10
262.1167625207900755
 20
23.8828604792224688
 30
0.0
 11
261.0827075207899952
 21
26.5430354792224499
 31
0.0
  0
LINE
  5
26899
  8
LAYER_1
 10
261.0827075207899952
 20
26.5430354792224499
 30
0.0
 11
260.4108125207905005
 21
23.8828604792224688
 31
0.0
  0
LINE
  5
2689A
  8
LAYER_1
 10
260.4108125207905005
 20
23.8828604792224688
 30
0.0
 11
259.0843925207901748
 21
23.8828604792224688
 31
0.0
  0
LINE
  5
2689B
  8
LAYER_1
 10
259.0843925207901748
 20
23.8828604792224688
 30
0.0
 11
260.3077175207901064
 21
28.7225204792225703
 31
0.0
  0
LINE
  5
2689C
  8
LAYER_1
 10
265.2874175207899725
 20
28.7225204792225703
 30
0.0
 11
269.0673275207901725
 21
28.7225204792225703
 31
0.0
  0
LINE
  5
2689D
  8
LAYER_1
 10
269.0673275207901725
 20
28.7225204792225703
 30
0.0
 11
268.8061025207899775
 21
27.6895454792224918
 31
0.0
  0
LINE
  5
2689E
  8
LAYER_1
 10
268.8061025207899775
 20
27.6895454792224918
 30
0.0
 11
266.4401825207903016
 21
27.6895454792224918
 31
0.0
  0
LINE
  5
2689F
  8
LAYER_1
 10
266.4401825207903016
 20
27.6895454792224918
 30
0.0
 11
266.2465925207898749
 21
26.9247254792226194
 31
0.0
  0
LINE
  5
268A0
  8
LAYER_1
 10
266.2465925207898749
 20
26.9247254792226194
 30
0.0
 11
268.4444375207904727
 21
26.9247254792226194
 31
0.0
  0
LINE
  5
268A1
  8
LAYER_1
 10
268.4444375207904727
 20
26.9247254792226194
 30
0.0
 11
268.1949575207901262
 21
25.9359404792226087
 31
0.0
  0
LINE
  5
268A2
  8
LAYER_1
 10
268.1949575207901262
 20
25.9359404792226087
 30
0.0
 11
265.9965275207902096
 21
25.9359404792226087
 31
0.0
  0
LINE
  5
268A3
  8
LAYER_1
 10
265.9965275207902096
 20
25.9359404792226087
 30
0.0
 11
265.7549675207902737
 21
24.9797354792224304
 31
0.0
  0
LINE
  5
268A4
  8
LAYER_1
 10
265.7549675207902737
 20
24.9797354792224304
 30
0.0
 11
268.1894225207898899
 21
24.9797354792224304
 31
0.0
  0
LINE
  5
268A5
  8
LAYER_1
 10
268.1894225207898899
 20
24.9797354792224304
 30
0.0
 11
267.9126725207898971
 21
23.8828604792224688
 31
0.0
  0
LINE
  5
268A6
  8
LAYER_1
 10
267.9126725207898971
 20
23.8828604792224688
 30
0.0
 11
264.0643625207904961
 21
23.8828604792224688
 31
0.0
  0
LINE
  5
268A7
  8
LAYER_1
 10
264.0643625207904961
 20
23.8828604792224688
 30
0.0
 11
265.2874175207899725
 21
28.7225204792225703
 31
0.0
  0
LINE
  5
268A8
  8
寸法
 62
     2
 10
33.0042458905560423
 20
165.0231403648544131
 30
0.0
 11
33.0042458905560423
 21
156.7127017034493974
 31
0.0
  0
LINE
  5
268A9
  8
寸法
 62
     2
 10
114.404245890556993
 20
164.9943993987016029
 30
0.0
 11
114.404245890556993
 21
156.7127017034493974
 31
0.0
  0
LINE
  5
268AA
  8
寸法
 62
     2
 10
33.8042458905560324
 20
156.7127017034493974
 30
0.0
 11
113.6042458905569958
 21
156.7127017034493974
 31
0.0
  0
LINE
  5
268AE
  8
寸法
 62
     2
 10
110.9042158905568982
 20
164.9943993987016029
 30
0.0
 11
110.9042158905568982
 21
161.0944143987024972
 31
0.0
  0
LINE
  5
268AF
  8
寸法
 62
     2
 10
36.5042127447110332
 20
164.9943993987016029
 30
0.0
 11
36.5042127447110332
 21
161.0944143987024972
 31
0.0
  0
LINE
  5
268B0
  8
寸法
 62
     2
 10
110.1042158905569011
 20
161.0944143987024972
 30
0.0
 11
37.3042127447110232
 21
161.0944143987024972
 31
0.0
  0
LINE
  5
268B4
  8
寸法
 62
     2
 10
36.5042127447110332
 20
164.9943993987016029
 30
0.0
 11
36.5042127447110332
 21
161.0944143987024972
 31
0.0
  0
LINE
  5
268B5
  8
寸法
 62
     2
 10
33.0042458905560423
 20
165.0231403648544131
 30
0.0
 11
33.0042458905560423
 21
161.0944143987024972
 31
0.0
  0
LINE
  5
268B6
  8
寸法
 62
     2
 10
35.7042127447110289
 20
161.0944143987024972
 30
0.0
 11
33.8042458905560324
 21
161.0944143987024972
 31
0.0
  0
LINE
  5
268BA
  8
寸法
 62
     2
 10
31.0042458905560494
 20
174.5230903648545109
 30
0.0
 11
26.0042458905619895
 21
174.5230903648545109
 31
0.0
  0
LINE
  5
268BB
  8
寸法
 62
     2
 10
31.0042458905560494
 20
167.0231403648544131
 30
0.0
 11
26.0042458905619895
 21
167.0231403648544131
 31
0.0
  0
LINE
  5
268BC
  8
寸法
 62
     2
 10
26.0042458905619895
 20
173.7230903648544995
 30
0.0
 11
26.0042458905619895
 21
167.823140364854396
 31
0.0
  0
LINE
  5
268C0
  8
寸法
 62
     2
 10
114.404245890556993
 20
164.9943993987016029
 30
0.0
 11
114.404245890556993
 21
161.0944143987024972
 31
0.0
  0
LINE
  5
268C1
  8
寸法
 62
     2
 10
110.9042158905568982
 20
164.9943993987016029
 30
0.0
 11
110.9042158905568982
 21
161.0944143987024972
 31
0.0
  0
LINE
  5
268C2
  8
寸法
 62
     2
 10
113.6042458905569958
 20
161.0944143987024972
 30
0.0
 11
111.7042158905568954
 21
161.0944143987024972
 31
0.0
  0
LINE
  5
268E2
  8
寸法
 62
     2
 10
52.7705582604604615
 20
42.2053175809596084
 30
0.0
 11
52.7705582604604615
 21
38.9144008217728512
 31
0.0
  0
LINE
  5
268E3
  8
寸法
 62
     2
 10
52.0705582604604089
 20
42.2053175809596084
 30
0.0
 11
52.0705582604604089
 21
38.9144008217728512
 31
0.0
  0
LINE
  5
268E4
  8
寸法
 62
     2
 10
53.1705582604604601
 20
38.9144008217728512
 30
0.0
 11
53.5705582604604587
 21
38.9144008217728512
 31
0.0
  0
LINE
  5
268E5
  8
寸法
 62
     2
 10
51.6705582604604103
 20
38.9144008217728512
 30
0.0
 11
48.4205582604604103
 21
38.9144008217728512
 31
0.0
  0
LINE
  5
268E9
  8
寸法
 62
     2
 10
52.7705582604604615
 20
42.2053175809596084
 30
0.0
 11
52.7705582604604615
 21
38.9144008217728512
 31
0.0
  0
LINE
  5
268EA
  8
寸法
 62
     2
 10
96.7705582604604615
 20
42.2053175809596084
 30
0.0
 11
96.7705582604604615
 21
38.9144008217728512
 31
0.0
  0
LINE
  5
268EB
  8
寸法
 62
     2
 10
53.1705582604604601
 20
38.9144008217728512
 30
0.0
 11
96.3705582604604558
 21
38.9144008217728512
 31
0.0
  0
LINE
  5
268EF
  8
寸法
 62
     2
 10
96.7705582604604615
 20
42.2053175809596084
 30
0.0
 11
96.7705582604604615
 21
38.9144008217728512
 31
0.0
  0
LINE
  5
268F0
  8
寸法
 62
     2
 10
97.470558260460507
 20
42.2053175809596084
 30
0.0
 11
97.470558260460507
 21
38.9144008217728512
 31
0.0
  0
LINE
  5
268F1
  8
寸法
 62
     2
 10
96.3705582604604558
 20
38.9144008217728512
 30
0.0
 11
95.9705582604604643
 21
38.9144008217728512
 31
0.0
  0
LINE
  5
268F2
  8
寸法
 62
     2
 10
97.8705582604605127
 20
38.9144008217728512
 30
0.0
 11
101.1205582604604984
 21
38.9144008217728512
 31
0.0
  0
LINE
  5
268FE
  8
寸法
 62
     2
 10
208.560521963386492
 20
169.621793795351806
 30
0.0
 11
205.785066098224604
 21
169.621793795351806
 31
0.0
  0
LINE
  5
268FF
  8
寸法
 62
     2
 10
208.560521963386492
 20
156.955127128685092
 30
0.0
 11
205.785066098224604
 21
156.955127128685092
 31
0.0
  0
LINE
  5
26900
  8
寸法
 62
     2
 10
205.785066098224604
 20
169.2217937953518003
 30
0.0
 11
205.785066098224604
 21
157.3551271286850977
 31
0.0
  0
LINE
  5
26904
  8
寸法
 62
     2
 10
208.560521963386492
 20
156.955127128685092
 30
0.0
 11
205.785066098224604
 21
156.955127128685092
 31
0.0
  0
LINE
  5
26905
  8
寸法
 62
     2
 10
208.5606478179826979
 20
132.9586732532428925
 30
0.0
 11
205.785066098224604
 21
132.9586732532428925
 31
0.0
  0
LINE
  5
26906
  8
寸法
 62
     2
 10
205.785066098224604
 20
156.5551271286850863
 30
0.0
 11
205.785066098224604
 21
133.3586732532428982
 31
0.0
  0
LINE
  5
2690A
  8
寸法
 62
     2
 10
208.3931946527357013
 20
132.959047465440193
 30
0.0
 11
205.7850660982248883
 21
132.959047465440193
 31
0.0
  0
LINE
  5
2690B
  8
寸法
 62
     2
 10
208.3931946527357013
 20
111.621793795351806
 30
0.0
 11
205.7850660982248883
 21
111.621793795351806
 31
0.0
  0
LINE
  5
2690C
  8
寸法
 62
     2
 10
205.7850660982248883
 20
132.5590474654401874
 30
0.0
 11
205.7850660982248883
 21
112.0217937953517975
 31
0.0
  0
LINE
  5
26910
  8
寸法
 62
     2
 10
208.0517678401079138
 20
111.621793795351806
 30
0.0
 11
205.785066098225002
 21
111.621793795351806
 31
0.0
  0
LINE
  5
26911
  8
寸法
 62
     2
 10
208.0517678401079138
 20
91.621793795351806
 30
0.0
 11
205.785066098225002
 21
91.621793795351806
 31
0.0
  0
LINE
  5
26912
  8
寸法
 62
     2
 10
205.785066098225002
 20
111.2217937953518003
 30
0.0
 11
205.785066098225002
 21
92.0217937953518117
 31
0.0
  0
LINE
  5
26916
  8
寸法
 62
     2
 10
208.0517678401079138
 20
91.621793795351806
 30
0.0
 11
205.7850660982253999
 21
91.621793795351806
 31
0.0
  0
LINE
  5
26917
  8
寸法
 62
     2
 10
208.0584559821367918
 20
84.2938357772646469
 30
0.0
 11
205.7850660982253999
 21
84.2938357772646469
 31
0.0
  0
LINE
  5
26918
  8
寸法
 62
     2
 10
205.7850660982253999
 20
91.2217937953518145
 30
0.0
 11
205.7850660982253999
 21
84.6938357772646668
 31
0.0
  0
LINE
  5
2691C
  8
寸法
 62
     2
 10
207.8270168904979016
 20
169.6293673792910965
 30
0.0
 11
198.3279760561507032
 21
169.6293673792910965
 31
0.0
  0
LINE
  5
2691D
  8
寸法
 62
     2
 10
207.8270168904979016
 20
51.5314571457774733
 30
0.0
 11
198.3279760561507032
 21
51.5314571457774733
 31
0.0
  0
LINE
  5
2691E
  8
寸法
 62
     2
 10
198.3279760561507032
 20
169.2293673792910909
 30
0.0
 11
198.3279760561507032
 21
51.9314571457774719
 31
0.0
  0
LINE
  5
26922
  8
寸法
 62
     2
 10
48.3031523071833035
 20
109.4325332283589063
 30
0.0
 11
47.2475431307772311
 21
109.4325332283589063
 31
0.0
  0
LINE
  5
26923
  8
寸法
 62
     2
 10
48.3031523071833035
 20
102.2325332283589034
 30
0.0
 11
47.2475431307772311
 21
102.2325332283589034
 31
0.0
  0
LINE
  5
26924
  8
寸法
 62
     2
 10
47.2475431307772311
 20
109.0325332283589006
 30
0.0
 11
47.2475431307772311
 21
102.6325332283588949
 31
0.0
  0
LINE
  5
26928
  8
寸法
 62
     2
 10
48.3031523071833035
 20
109.4325332283589063
 30
0.0
 11
47.2475431307775935
 21
109.4325332283589063
 31
0.0
  0
LINE
  5
26929
  8
寸法
 62
     2
 10
48.3031523071833035
 20
113.2325332283589034
 30
0.0
 11
47.2475431307775793
 21
113.2325332283589034
 31
0.0
  0
LINE
  5
2692A
  8
寸法
 62
     2
 10
47.2475431307775935
 20
109.8325332283588978
 30
0.0
 11
47.2475431307775793
 21
112.8325332283588978
 31
0.0
  0
LINE
  5
2692E
  8
寸法
 62
     2
 10
52.7705582604604615
 20
49.3915026722219466
 30
0.0
 11
52.7705582604604615
 21
46.7883101168616165
 31
0.0
  0
LINE
  5
2692F
  8
寸法
 62
     2
 10
58.57055826046048
 20
49.3915026722219608
 30
0.0
 11
58.57055826046048
 21
46.7883101168616165
 31
0.0
  0
LINE
  5
26930
  8
寸法
 62
     2
 10
53.1705582604604601
 20
46.7883101168616165
 30
0.0
 11
58.1705582604604814
 21
46.7883101168616165
 31
0.0
  0
LINE
  5
26934
  8
寸法
 62
     2
 10
58.5705582604604871
 20
49.3915026722219608
 30
0.0
 11
58.5705582604604871
 21
46.7883101168616165
 31
0.0
  0
LINE
  5
26935
  8
寸法
 62
     2
 10
75.5705582604604871
 20
49.3915026722219608
 30
0.0
 11
75.5705582604604871
 21
46.7883101168616165
 31
0.0
  0
LINE
  5
26936
  8
寸法
 62
     2
 10
58.9705582604604928
 20
46.7883101168616165
 30
0.0
 11
75.1705582604604814
 21
46.7883101168616165
 31
0.0
  0
LINE
  5
2693A
  8
寸法
 62
     2
 10
75.5705582604604871
 20
49.3915026722219608
 30
0.0
 11
75.5705582604604871
 21
46.7303646035087183
 31
0.0
  0
LINE
  5
2693B
  8
寸法
 62
     2
 10
77.37055826046047
 20
49.3915026722219892
 30
0.0
 11
77.37055826046047
 21
46.7303646035087183
 31
0.0
  0
LINE
  5
2693C
  8
寸法
 62
     2
 10
75.1705582604604814
 20
46.7303646035087183
 30
0.0
 11
74.7705582604604899
 21
46.7303646035087183
 31
0.0
  0
LINE
  5
2693D
  8
寸法
 62
     2
 10
77.7705582604604757
 20
46.7303646035087183
 30
0.0
 11
78.1705582604604672
 21
46.7303646035087183
 31
0.0
  0
LINE
  5
26941
  8
寸法
 62
     2
 10
77.37055826046047
 20
49.3915026722219821
 30
0.0
 11
77.37055826046047
 21
46.7883101168616165
 31
0.0
  0
LINE
  5
26942
  8
寸法
 62
     2
 10
94.3705582604604842
 20
49.3915026722219466
 30
0.0
 11
94.3705582604604842
 21
46.7883101168616165
 31
0.0
  0
LINE
  5
26943
  8
寸法
 62
     2
 10
77.7705582604604757
 20
46.7883101168616165
 30
0.0
 11
93.9705582604604643
 21
46.7883101168616165
 31
0.0
  0
LINE
  5
26947
  8
本体1
 62
     2
 10
94.3705582604604842
 20
49.3915026722219466
 30
0.0
 11
94.3705582604604842
 21
46.7883101168616165
 31
0.0
  0
LINE
  5
26948
  8
本体1
 62
     2
 10
96.7705582604604615
 20
49.3915026722219466
 30
0.0
 11
96.7705582604604615
 21
46.7883101168616165
 31
0.0
  0
LINE
  5
26949
  8
本体1
 62
     2
 10
94.7705582604604899
 20
46.7883101168616165
 30
0.0
 11
96.3705582604604558
 21
46.7883101168616165
 31
0.0
  0
LINE
  5
2694D
  8
寸法
 62
     2
 10
49.0934049520571421
 20
95.8325332283589404
 30
0.0
 11
47.2475431307772027
 21
95.8325332283589404
 31
0.0
  0
LINE
  5
2694E
  8
寸法
 62
     2
 10
49.0934049520571278
 20
102.2325332283589034
 30
0.0
 11
47.2475431307772027
 21
102.2325332283589034
 31
0.0
  0
LINE
  5
2694F
  8
寸法
 62
     2
 10
47.2475431307772027
 20
96.2325332283589603
 30
0.0
 11
47.2475431307772027
 21
101.8325332283588978
 31
0.0
  0
LINE
  5
26953
  8
寸法
 62
     2
 10
49.0934049520571278
 20
95.8325332283589262
 30
0.0
 11
47.2475431307772311
 21
95.8325332283589262
 31
0.0
  0
LINE
  5
26954
  8
寸法
 62
     2
 10
49.0934049520571278
 20
89.8325332283589262
 30
0.0
 11
47.2475431307772311
 21
89.8325332283589262
 31
0.0
  0
LINE
  5
26955
  8
寸法
 62
     2
 10
47.2475431307772311
 20
95.4325332283589347
 30
0.0
 11
47.2475431307772311
 21
90.2325332283589319
 31
0.0
  0
LINE
  5
26959
  8
寸法
 62
     2
 10
49.0934049520571421
 20
89.8325332283589262
 30
0.0
 11
47.2475431307772524
 21
89.8325332283589262
 31
0.0
  0
LINE
  5
2695A
  8
寸法
 62
     2
 10
49.0934049520571421
 20
87.6325332283589091
 30
0.0
 11
47.2475431307772524
 21
87.6325332283589091
 31
0.0
  0
LINE
  5
2695B
  8
寸法
 62
     2
 10
47.2475431307772524
 20
89.4325332283589063
 30
0.0
 11
47.2475431307772524
 21
88.0325332283589148
 31
0.0
  0
LINE
  5
2695F
  8
寸法
 62
     2
 10
208.0584559821367918
 20
84.2938357772646469
 30
0.0
 11
205.7850660982257978
 21
84.2938357772646469
 31
0.0
  0
LINE
  5
26960
  8
寸法
 62
     2
 10
208.0584559821367918
 20
64.1959255437509881
 30
0.0
 11
205.7850660982257978
 21
64.1959255437509881
 31
0.0
  0
LINE
  5
26961
  8
寸法
 62
     2
 10
205.7850660982257978
 20
83.8938357772646413
 30
0.0
 11
205.7850660982257978
 21
64.5959255437509938
 31
0.0
  0
LINE
  5
26965
  8
寸法
 62
     2
 10
208.0584559821367918
 20
64.1959255437509881
 30
0.0
 11
205.7850660982261104
 21
64.1959255437509881
 31
0.0
  0
LINE
  5
26966
  8
寸法
 62
     2
 10
208.0584559821367918
 20
51.5296694914433004
 30
0.0
 11
205.7850660982261957
 21
51.5296694914432933
 31
0.0
  0
LINE
  5
26967
  8
寸法
 62
     2
 10
205.7850660982261957
 20
63.7959255437509896
 30
0.0
 11
205.7850660982261957
 21
51.9296694914432919
 31
0.0
  0
LINE
  5
2696B
  8
寸法
 62
     2
 10
49.3796559996604429
 20
57.0325332283588722
 30
0.0
 11
47.2475431307773377
 21
57.032533228358858
 31
0.0
  0
LINE
  5
2696C
  8
寸法
 62
     2
 10
49.3796559996604429
 20
53.2325332283589674
 30
0.0
 11
47.2475431307773377
 21
53.2325332283589603
 31
0.0
  0
LINE
  5
2696D
  8
寸法
 62
     2
 10
47.2475431307773377
 20
56.6325332283588594
 30
0.0
 11
47.2475431307773377
 21
53.6325332283589589
 31
0.0
  0
LINE
  5
26971
  8
寸法
 62
     2
 10
49.0934049520571278
 20
87.6325332283589091
 30
0.0
 11
47.2475431307772595
 21
87.6325332283589091
 31
0.0
  0
LINE
  5
26972
  8
寸法
 62
     2
 10
49.0934049520571278
 20
81.6325332283588949
 30
0.0
 11
47.2475431307772595
 21
81.6325332283588949
 31
0.0
  0
LINE
  5
26973
  8
寸法
 62
     2
 10
47.2475431307772595
 20
87.2325332283589034
 30
0.0
 11
47.2475431307772595
 21
82.0325332283589148
 31
0.0
  0
LINE
  5
26977
  8
寸法
 62
     2
 10
49.0934049520571421
 20
81.6325332283588949
 30
0.0
 11
47.2475431307772809
 21
81.6325332283588949
 31
0.0
  0
LINE
  5
26978
  8
寸法
 62
     2
 10
49.0934049520571421
 20
79.4325332283589063
 30
0.0
 11
47.2475431307772809
 21
79.4325332283589063
 31
0.0
  0
LINE
  5
26979
  8
寸法
 62
     2
 10
47.2475431307772809
 20
81.2325332283589034
 30
0.0
 11
47.2475431307772809
 21
79.832533228358912
 31
0.0
  0
LINE
  5
2697D
  8
寸法
 62
     2
 10
49.0934049520571421
 20
79.4325332283589063
 30
0.0
 11
47.2475431307772666
 21
79.4325332283589063
 31
0.0
  0
LINE
  5
2697E
  8
寸法
 62
     2
 10
49.0934049520571421
 20
73.4325332283589063
 30
0.0
 11
47.2475431307772666
 21
73.4325332283589063
 31
0.0
  0
LINE
  5
2697F
  8
寸法
 62
     2
 10
47.2475431307772666
 20
79.0325332283589006
 30
0.0
 11
47.2475431307772666
 21
73.832533228358912
 31
0.0
  0
LINE
  5
26983
  8
寸法
 62
     2
 10
49.0934049520571421
 20
73.4325332283589063
 30
0.0
 11
47.2475431307772666
 21
73.4325332283589063
 31
0.0
  0
LINE
  5
26984
  8
寸法
 62
     2
 10
49.0934049520571492
 20
71.2325332283589034
 30
0.0
 11
47.2475431307772666
 21
71.2325332283589034
 31
0.0
  0
LINE
  5
26985
  8
寸法
 62
     2
 10
47.2475431307772666
 20
73.0325332283589006
 30
0.0
 11
47.2475431307772666
 21
71.6325332283589091
 31
0.0
  0
LINE
  5
26989
  8
寸法
 62
     2
 10
49.0934049520571421
 20
71.2325332283588892
 30
0.0
 11
47.2475431307773022
 21
71.2325332283588892
 31
0.0
  0
LINE
  5
2698A
  8
寸法
 62
     2
 10
49.0934049520571421
 20
65.2325332283588892
 30
0.0
 11
47.2475431307773022
 21
65.2325332283588892
 31
0.0
  0
LINE
  5
2698B
  8
寸法
 62
     2
 10
47.2475431307773022
 20
70.8325332283588835
 30
0.0
 11
47.2475431307773022
 21
65.6325332283588949
 31
0.0
  0
LINE
  5
2698F
  8
寸法
 62
     2
 10
49.0934049520571421
 20
65.2325332283588892
 30
0.0
 11
47.2475431307773022
 21
65.2325332283588892
 31
0.0
  0
LINE
  5
26990
  8
寸法
 62
     2
 10
49.0934049520571492
 20
63.0325332283588935
 30
0.0
 11
47.2475431307773022
 21
63.0325332283588793
 31
0.0
  0
LINE
  5
26991
  8
寸法
 62
     2
 10
47.2475431307773022
 20
64.8325332283588835
 30
0.0
 11
47.2475431307773022
 21
63.4325332283588779
 31
0.0
  0
LINE
  5
26995
  8
寸法
 62
     2
 10
49.0934049520571492
 20
63.032533228358858
 30
0.0
 11
47.2475431307773377
 21
63.0325332283588509
 31
0.0
  0
LINE
  5
26996
  8
寸法
 62
     2
 10
49.0934049520571492
 20
57.0325332283588722
 30
0.0
 11
47.2475431307773377
 21
57.032533228358858
 31
0.0
  0
LINE
  5
26997
  8
寸法
 62
     2
 10
47.2475431307773377
 20
62.6325332283588594
 30
0.0
 11
47.2475431307773377
 21
57.4325332283588565
 31
0.0
  0
LINE
  5
2699D
  8
寸法
 62
     2
 10
50.7705582604604828
 20
113.2325332283589034
 30
0.0
 11
40.3392340026662524
 21
113.2325332283589034
 31
0.0
  0
LINE
  5
2699E
  8
寸法
 62
     2
 10
50.7705582604604828
 20
53.2325332283589532
 30
0.0
 11
40.3392340026662666
 21
53.232533228358939
 31
0.0
  0
LINE
  5
2699F
  8
寸法
 62
     2
 10
40.3392340026662524
 20
112.8325332283588978
 30
0.0
 11
40.3392340026662666
 21
53.6325332283589375
 31
0.0
  0
POLYLINE
  5
269A3
  8
0
  6
BYBLOCK
 62
     0
 66
     1
 10
0.0
 20
0.0
 30
0.0
 70
     1
 40
0.4
 41
0.4
  0
VERTEX
  5
26B7B
  8
0
  6
BYBLOCK
 62
     0
 10
33.204245890556038
 20
156.7127017034493974
 30
0.0
 42
1.0
  0
VERTEX
  5
26B7C
  8
0
  6
BYBLOCK
 62
     0
 10
32.8042458905560324
 20
156.7127017034493974
 30
0.0
 42
1.0
  0
SEQEND
  5
26B7D
  8
0
  6
BYBLOCK
 62
     0
  0
LINE
  5
269A4
  8
0
  6
BYBLOCK
 62
     0
 10
33.4042458905560267
 20
156.7127017034493974
 30
0.0
 11
33.8042458905560324
 21
156.7127017034493974
 31
0.0
  0
POLYLINE
  5
269A5
  8
0
  6
BYBLOCK
 62
     0
 66
     1
 10
0.0
 20
0.0
 30
0.0
 70
     1
 40
0.4
 41
0.4
  0
VERTEX
  5
26B7E
  8
0
  6
BYBLOCK
 62
     0
 10
114.2042458905570044
 20
156.7127017034493974
 30
0.0
 42
1.0
  0
VERTEX
  5
26B7F
  8
0
  6
BYBLOCK
 62
     0
 10
114.6042458905569958
 20
156.7127017034493974
 30
0.0
 42
1.0
  0
SEQEND
  5
26B80
  8
0
  6
BYBLOCK
 62
     0
  0
LINE
  5
269A6
  8
0
  6
BYBLOCK
 62
     0
 10
114.0042458905570015
 20
156.7127017034493974
 30
0.0
 11
113.6042458905569958
 21
156.7127017034493974
 31
0.0
  0
TEXT
  5
269A7
  8
寸法
 62
     2
 10
70.5042458905558505
 20
157.3127017034493917
 30
0.0
 40
2.399999999999999
  1
454
  7
角ゴ
  0
POLYLINE
  5
269A8
  8
0
  6
BYBLOCK
 62
     0
 66
     1
 10
0.0
 20
0.0
 30
0.0
 70
     1
 40
0.4
 41
0.4
  0
VERTEX
  5
26B81
  8
0
  6
BYBLOCK
 62
     0
 10
110.7042158905568954
 20
161.0944143987024972
 30
0.0
 42
1.0
  0
VERTEX
  5
26B82
  8
0
  6
BYBLOCK
 62
     0
 10
111.1042158905569011
 20
161.0944143987024972
 30
0.0
 42
1.0
  0
SEQEND
  5
26B83
  8
0
  6
BYBLOCK
 62
     0
  0
LINE
  5
269A9
  8
0
  6
BYBLOCK
 62
     0
 10
110.5042158905569067
 20
161.0944143987024972
 30
0.0
 11
110.1042158905569011
 21
161.0944143987024972
 31
0.0
  0
POLYLINE
  5
269AA
  8
0
  6
BYBLOCK
 62
     0
 66
     1
 10
0.0
 20
0.0
 30
0.0
 70
     1
 40
0.4
 41
0.4
  0
VERTEX
  5
26B84
  8
0
  6
BYBLOCK
 62
     0
 10
36.7042127447110289
 20
161.0944143987024972
 30
0.0
 42
1.0
  0
VERTEX
  5
26B85
  8
0
  6
BYBLOCK
 62
     0
 10
36.3042127447110232
 20
161.0944143987024972
 30
0.0
 42
1.0
  0
SEQEND
  5
26B86
  8
0
  6
BYBLOCK
 62
     0
  0
LINE
  5
269AB
  8
0
  6
BYBLOCK
 62
     0
 10
36.9042127447110175
 20
161.0944143987024972
 30
0.0
 11
37.3042127447110232
 21
161.0944143987024972
 31
0.0
  0
TEXT
  5
269AC
  8
寸法
 62
     2
 10
70.704214317633955
 20
161.6944143987024916
 30
0.0
 40
2.399999999999999
  1
440
  7
角ゴ
  0
POLYLINE
  5
269AD
  8
0
  6
BYBLOCK
 62
     0
 66
     1
 10
0.0
 20
0.0
 30
0.0
 70
     1
 40
0.4
 41
0.4
  0
VERTEX
  5
26B87
  8
0
  6
BYBLOCK
 62
     0
 10
36.3042127447110232
 20
161.0944143987024972
 30
0.0
 42
1.0
  0
VERTEX
  5
26B88
  8
0
  6
BYBLOCK
 62
     0
 10
36.7042127447110289
 20
161.0944143987024972
 30
0.0
 42
1.0
  0
SEQEND
  5
26B89
  8
0
  6
BYBLOCK
 62
     0
  0
LINE
  5
269AE
  8
0
  6
BYBLOCK
 62
     0
 10
36.1042127447110275
 20
161.0944143987024972
 30
0.0
 11
35.7042127447110289
 21
161.0944143987024972
 31
0.0
  0
POLYLINE
  5
269AF
  8
0
  6
BYBLOCK
 62
     0
 66
     1
 10
0.0
 20
0.0
 30
0.0
 70
     1
 40
0.4
 41
0.4
  0
VERTEX
  5
26B8A
  8
0
  6
BYBLOCK
 62
     0
 10
33.204245890556038
 20
161.0944143987024972
 30
0.0
 42
1.0
  0
VERTEX
  5
26B8B
  8
0
  6
BYBLOCK
 62
     0
 10
32.8042458905560324
 20
161.0944143987024972
 30
0.0
 42
1.0
  0
SEQEND
  5
26B8C
  8
0
  6
BYBLOCK
 62
     0
  0
LINE
  5
269B0
  8
0
  6
BYBLOCK
 62
     0
 10
33.4042458905560267
 20
161.0944143987024972
 30
0.0
 11
33.8042458905560324
 21
161.0944143987024972
 31
0.0
  0
TEXT
  5
269B1
  8
寸法
 62
     2
 10
33.9542293176335335
 20
161.6944143987024916
 30
0.0
 40
2.399999999999999
  1
7
  7
角ゴ
  0
POLYLINE
  5
269B2
  8
0
  6
BYBLOCK
 62
     0
 66
     1
 10
0.0
 20
0.0
 30
0.0
 70
     1
 40
0.4000000000000002
 41
0.4000000000000002
  0
VERTEX
  5
26B8D
  8
0
  6
BYBLOCK
 62
     0
 10
26.0042458905619895
 20
174.3230903648546075
 30
0.0
 42
1.0
  0
VERTEX
  5
26B8E
  8
0
  6
BYBLOCK
 62
     0
 10
26.0042458905619895
 20
174.7230903648544995
 30
0.0
 42
1.0
  0
SEQEND
  5
26B8F
  8
0
  6
BYBLOCK
 62
     0
  0
LINE
  5
269B3
  8
0
  6
BYBLOCK
 62
     0
 10
26.0042458905619895
 20
174.1230903648545052
 30
0.0
 11
26.0042458905619895
 21
173.7230903648544995
 31
0.0
  0
POLYLINE
  5
269B4
  8
0
  6
BYBLOCK
 62
     0
 66
     1
 10
0.0
 20
0.0
 30
0.0
 70
     1
 40
0.4
 41
0.4
  0
VERTEX
  5
26B90
  8
0
  6
BYBLOCK
 62
     0
 10
26.0042458905619895
 20
167.2231403648544017
 30
0.0
 42
1.0
  0
VERTEX
  5
26B91
  8
0
  6
BYBLOCK
 62
     0
 10
26.0042458905619895
 20
166.823140364854396
 30
0.0
 42
1.0
  0
SEQEND
  5
26B92
  8
0
  6
BYBLOCK
 62
     0
  0
LINE
  5
269B5
  8
0
  6
BYBLOCK
 62
     0
 10
26.0042458905619895
 20
167.4231403648543903
 30
0.0
 11
26.0042458905619895
 21
167.823140364854396
 31
0.0
  0
TEXT
  5
269B6
  8
寸法
 62
     2
 10
25.4042458905620308
 20
169.1731153648545103
 30
0.0
 40
2.399999999999999
  1
15
 50
90.0
  7
角ゴ
  0
POLYLINE
  5
269B7
  8
0
  6
BYBLOCK
 62
     0
 66
     1
 10
0.0
 20
0.0
 30
0.0
 70
     1
 40
0.4
 41
0.4
  0
VERTEX
  5
26B93
  8
0
  6
BYBLOCK
 62
     0
 10
114.2042458905570044
 20
161.0944143987024972
 30
0.0
 42
1.0
  0
VERTEX
  5
26B94
  8
0
  6
BYBLOCK
 62
     0
 10
114.6042458905569958
 20
161.0944143987024972
 30
0.0
 42
1.0
  0
SEQEND
  5
26B95
  8
0
  6
BYBLOCK
 62
     0
  0
LINE
  5
269B8
  8
0
  6
BYBLOCK
 62
     0
 10
114.0042458905570015
 20
161.0944143987024972
 30
0.0
 11
113.6042458905569958
 21
161.0944143987024972
 31
0.0
  0
POLYLINE
  5
269B9
  8
0
  6
BYBLOCK
 62
     0
 66
     1
 10
0.0
 20
0.0
 30
0.0
 70
     1
 40
0.4
 41
0.4
  0
VERTEX
  5
26B96
  8
0
  6
BYBLOCK
 62
     0
 10
111.1042158905569011
 20
161.0944143987024972
 30
0.0
 42
1.0
  0
VERTEX
  5
26B97
  8
0
  6
BYBLOCK
 62
     0
 10
110.7042158905568954
 20
161.0944143987024972
 30
0.0
 42
1.0
  0
SEQEND
  5
26B98
  8
0
  6
BYBLOCK
 62
     0
  0
LINE
  5
269BA
  8
0
  6
BYBLOCK
 62
     0
 10
111.3042158905569039
 20
161.0944143987024972
 30
0.0
 11
111.7042158905568954
 21
161.0944143987024972
 31
0.0
  0
TEXT
  5
269BB
  8
寸法
 62
     2
 10
111.8542308905569058
 20
161.6944143987024916
 30
0.0
 40
2.399999999999999
  1
7
  7
角ゴ
  0
POLYLINE
  5
269BC
  8
0
  6
BYBLOCK
 62
     0
 66
     1
 10
0.0
 20
0.0
 30
0.0
 70
     1
 40
0.4
 41
0.4
  0
VERTEX
  5
26B99
  8
0
  6
BYBLOCK
 62
     0
 10
33.1545629638643575
 20
173.6135019504905017
 30
0.0
 42
1.0
  0
VERTEX
  5
26B9A
  8
0
  6
BYBLOCK
 62
     0
 10
32.8725849611035912
 20
173.3297971638563979
 30
0.0
 42
1.0
  0
SEQEND
  5
26B9B
  8
0
  6
BYBLOCK
 62
     0
  0
LINE
  5
269BD
  8
0
  6
BYBLOCK
 62
     0
 10
33.2955519652447407
 20
173.755354343807511
 30
0.0
 11
33.5775299680054999
 21
174.0390591304415011
 31
0.0
  0
LINE
  5
269BE
  8
注釈
 10
33.5775299680054999
 20
174.0390591304415011
 30
0.0
 11
55.5964394778121687
 21
196.1928085833492901
 31
0.0
1001
ACAD
1000
DSTYLE
1002
{
1070
   147
1040
0.09
1070
    41
1040
0.8
1070
    42
1040
2.0
1070
    43
1040
0.35
1070
    44
1040
0.0
1070
    73
1070
     0
1070
    74
1070
     0
1070
    77
1070
     0
1070
    78
1070
     8
1070
   140
1040
2.399999999999999
1070
   144
1040
2.0
1070
   176
1070
     2
1070
   177
1070
     2
1070
   178
1070
     2
1070
   271
1070
     1
1070
   272
1070
     1
1070
   340
1005
2278D
1070
   341
1005
36B9
1070
   342
1005
36B9
1070
   371
1070
    -1
1070
   372
1070
    -1
1002
}
  0
POLYLINE
  5
269BF
  8
0
  6
BYBLOCK
 62
     0
 66
     1
 10
0.0
 20
0.0
 30
0.0
 70
     1
 40
0.4
 41
0.4
  0
VERTEX
  5
26B9C
  8
0
  6
BYBLOCK
 62
     0
 10
39.1999924699733882
 20
168.0913842743634916
 30
0.0
 42
1.0
  0
VERTEX
  5
26B9D
  8
0
  6
BYBLOCK
 62
     0
 10
38.9180144672126218
 20
167.8076794877293878
 30
0.0
 42
1.0
  0
SEQEND
  5
26B9E
  8
0
  6
BYBLOCK
 62
     0
  0
LINE
  5
269C0
  8
0
  6
BYBLOCK
 62
     0
 10
39.3409814713537784
 20
168.2332366676805009
 30
0.0
 11
39.6229594741145519
 21
168.516941454314491
 31
0.0
  0
LINE
  5
269C1
  8
注釈
 10
39.6229594741145519
 20
168.516941454314491
 30
0.0
 11
52.3569891028688517
 21
181.3289520489203142
 31
0.0
1001
ACAD
1000
DSTYLE
1002
{
1070
   147
1040
0.09
1070
    41
1040
0.8
1070
    42
1040
2.0
1070
    43
1040
0.35
1070
    44
1040
0.0
1070
    73
1070
     0
1070
    74
1070
     0
1070
    77
1070
     0
1070
    78
1070
     8
1070
   140
1040
2.399999999999999
1070
   144
1040
2.0
1070
   176
1070
     2
1070
   177
1070
     2
1070
   178
1070
     2
1070
   271
1070
     1
1070
   272
1070
     1
1070
   340
1005
2278D
1070
   341
1005
36B9
1070
   342
1005
36B9
1070
   371
1070
    -1
1070
   372
1070
    -1
1002
}
  0
POLYLINE
  5
269C2
  8
0
  6
BYBLOCK
 62
     0
 66
     1
 10
0.0
 20
0.0
 30
0.0
 70
     1
 40
0.4
 41
0.4
  0
VERTEX
  5
26B9F
  8
0
  6
BYBLOCK
 62
     0
 10
212.5617244905783991
 20
128.8323452478545903
 30
0.0
 42
1.0
  0
VERTEX
  5
26BA0
  8
0
  6
BYBLOCK
 62
     0
 10
212.2784825121179892
 20
128.5499023657743862
 30
0.0
 42
1.0
  0
SEQEND
  5
26BA1
  8
0
  6
BYBLOCK
 62
     0
  0
LINE
  5
269C3
  8
0
  6
BYBLOCK
 62
     0
 10
212.7033454798086893
 20
128.9735666888946923
 30
0.0
 11
212.9865874582692129
 21
129.2560095709750101
 31
0.0
  0
LINE
  5
269C4
  8
注釈
 10
212.9865874582692129
 20
129.2560095709750101
 30
0.0
 11
223.8902423381153142
 21
140.1289025164726922
 31
0.0
1001
ACAD
1000
DSTYLE
1002
{
1070
   147
1040
0.09
1070
    41
1040
0.8
1070
    42
1040
2.0
1070
    43
1040
0.35
1070
    44
1040
0.0
1070
    73
1070
     0
1070
    74
1070
     0
1070
    77
1070
     0
1070
    78
1070
     8
1070
   140
1040
2.399999999999999
1070
   144
1040
2.0
1070
   176
1070
     2
1070
   177
1070
     2
1070
   178
1070
     2
1070
   271
1070
     1
1070
   272
1070
     1
1070
   340
1005
2278D
1070
   341
1005
36B9
1070
   342
1005
36B9
1070
   371
1070
    -1
1070
   372
1070
    -1
1002
}
  0
POLYLINE
  5
269C5
  8
0
  6
BYBLOCK
 62
     0
 66
     1
 10
0.0
 20
0.0
 30
0.0
 70
     1
 40
0.4
 41
0.4
  0
VERTEX
  5
26BA2
  8
0
  6
BYBLOCK
 62
     0
 10
213.0533168409230029
 20
122.2019999930467975
 30
0.0
 42
1.0
  0
VERTEX
  5
26BA3
  8
0
  6
BYBLOCK
 62
     0
 10
212.771338838162194
 20
121.9182952064127932
 30
0.0
 42
1.0
  0
SEQEND
  5
26BA4
  8
0
  6
BYBLOCK
 62
     0
  0
LINE
  5
269C6
  8
0
  6
BYBLOCK
 62
     0
 10
213.1943058423034074
 20
122.3438523863638068
 30
0.0
 11
213.476283845064188
 21
122.6275571729977969
 31
0.0
  0
LINE
  5
269C7
  8
注釈
 10
213.476283845064188
 20
122.6275571729977969
 30
0.0
 11
223.3695705883004052
 21
132.5814286704836888
 31
0.0
1001
ACAD
1000
DSTYLE
1002
{
1070
   147
1040
0.09
1070
    41
1040
0.8
1070
    42
1040
2.0
1070
    43
1040
0.35
1070
    44
1040
0.0
1070
    73
1070
     0
1070
    74
1070
     0
1070
    77
1070
     0
1070
    78
1070
     8
1070
   140
1040
2.399999999999999
1070
   144
1040
2.0
1070
   176
1070
     2
1070
   177
1070
     2
1070
   178
1070
     2
1070
   271
1070
     1
1070
   272
1070
     1
1070
   340
1005
2278D
1070
   341
1005
36B9
1070
   342
1005
36B9
1070
   371
1070
    -1
1070
   372
1070
    -1
1002
}
  0
POLYLINE
  5
269C8
  8
0
  6
BYBLOCK
 62
     0
 66
     1
 10
0.0
 20
0.0
 30
0.0
 70
     1
 40
0.3999999999999999
 41
0.3999999999999999
  0
VERTEX
  5
26BA5
  8
0
  6
BYBLOCK
 62
     0
 10
54.3729347815496382
 20
113.5396315484997984
 30
0.0
 42
1.0
  0
VERTEX
  5
26BA6
  8
0
  6
BYBLOCK
 62
     0
 10
54.1195589506361472
 20
113.2301146857784033
 30
0.0
 42
1.0
  0
SEQEND
  5
26BA7
  8
0
  6
BYBLOCK
 62
     0
  0
LINE
  5
269C9
  8
0
  6
BYBLOCK
 62
     0
 10
54.4996226970063873
 20
113.6943899798605031
 30
0.0
 11
54.7529985279198925
 21
114.0039068425818982
 31
0.0
  0
LINE
  5
269CA
  8
注釈
 10
54.7529985279198925
 20
114.0039068425818982
 30
0.0
 11
72.1842447424598532
 21
135.2974320466119877
 31
0.0
1001
ACAD
1000
DSTYLE
1002
{
1070
   147
1040
0.09
1070
    41
1040
0.8
1070
    42
1040
2.0
1070
    43
1040
0.35
1070
    44
1040
0.0
1070
    73
1070
     0
1070
    74
1070
     0
1070
    77
1070
     0
1070
    78
1070
     8
1070
   140
1040
2.399999999999999
1070
   144
1040
2.0
1070
   176
1070
     2
1070
   177
1070
     2
1070
   178
1070
     2
1070
   271
1070
     1
1070
   272
1070
     1
1070
   340
1005
2278D
1070
   341
1005
36B9
1070
   342
1005
36B9
1070
   371
1070
    -1
1070
   372
1070
    -1
1002
}
  0
POLYLINE
  5
269CB
  8
0
  6
BYBLOCK
 62
     0
 66
     1
 10
0.0
 20
0.0
 30
0.0
 70
     1
 40
0.4
 41
0.4
  0
VERTEX
  5
26BA8
  8
0
  6
BYBLOCK
 62
     0
 10
94.4324631117891755
 20
172.4143783451083891
 30
0.0
 42
1.0
  0
VERTEX
  5
26BA9
  8
0
  6
BYBLOCK
 62
     0
 10
94.150485109028395
 20
172.130673558474399
 30
0.0
 42
1.0
  0
SEQEND
  5
26BAA
  8
0
  6
BYBLOCK
 62
     0
  0
LINE
  5
269CC
  8
0
  6
BYBLOCK
 62
     0
 10
94.5734521131695658
 20
172.5562307384253984
 30
0.0
 11
94.8554301159303463
 21
172.8399355250593885
 31
0.0
  0
LINE
  5
269CD
  8
注釈
 10
94.8554301159303463
 20
172.8399355250593885
 30
0.0
 11
107.5492931973358992
 21
185.6115335994192037
 31
0.0
1001
ACAD
1000
DSTYLE
1002
{
1070
   147
1040
0.09
1070
    41
1040
0.8
1070
    42
1040
2.0
1070
    43
1040
0.35
1070
    44
1040
0.0
1070
    73
1070
     0
1070
    74
1070
     0
1070
    77
1070
     0
1070
    78
1070
     8
1070
   140
1040
2.399999999999999
1070
   144
1040
2.0
1070
   176
1070
     2
1070
   177
1070
     2
1070
   178
1070
     2
1070
   271
1070
     1
1070
   272
1070
     1
1070
   340
1005
2278D
1070
   341
1005
36B9
1070
   342
1005
36B9
1070
   371
1070
    -1
1070
   372
1070
    -1
1002
}
  0
POLYLINE
  5
269CE
  8
0
  6
BYBLOCK
 62
     0
 66
     1
 10
0.0
 20
0.0
 30
0.0
 70
     1
 40
0.4000000000000002
 41
0.4000000000000002
  0
VERTEX
  5
26BAB
  8
0
  6
BYBLOCK
 62
     0
 10
94.7795997411541151
 20
106.011418598989394
 30
0.0
 42
1.0
  0
VERTEX
  5
26BAC
  8
0
  6
BYBLOCK
 62
     0
 10
94.584244366951566
 20
105.6623680614304988
 30
0.0
 42
1.0
  0
SEQEND
  5
26BAD
  8
0
  6
BYBLOCK
 62
     0
  0
LINE
  5
269CF
  8
0
  6
BYBLOCK
 62
     0
 10
94.8772774282553968
 20
106.185943867768799
 30
0.0
 11
95.0726328024579601
 21
106.5349944053277937
 31
0.0
  0
LINE
  5
269D0
  8
注釈
 10
95.0726328024579601
 20
106.5349944053277937
 30
0.0
 11
98.7777024554037979
 21
113.1550147622448037
 31
0.0
1001
ACAD
1000
DSTYLE
1002
{
1070
   147
1040
0.09
1070
    41
1040
0.8
1070
    42
1040
2.0
1070
    43
1040
0.35
1070
    44
1040
0.0
1070
    73
1070
     0
1070
    74
1070
     0
1070
    77
1070
     0
1070
    78
1070
     8
1070
   140
1040
2.399999999999999
1070
   144
1040
2.0
1070
   176
1070
     2
1070
   177
1070
     2
1070
   178
1070
     2
1070
   271
1070
     1
1070
   272
1070
     1
1070
   340
1005
2278D
1070
   341
1005
36B9
1070
   342
1005
36B9
1070
   371
1070
    -1
1070
   372
1070
    -1
1002
}
  0
POLYLINE
  5
269D1
  8
0
  6
BYBLOCK
 62
     0
 66
     1
 10
0.0
 20
0.0
 30
0.0
 70
     1
 40
0.4
 41
0.4
  0
VERTEX
  5
26BAE
  8
0
  6
BYBLOCK
 62
     0
 10
52.7373521692723202
 20
106.0938520810221064
 30
0.0
 42
1.0
  0
VERTEX
  5
26BAF
  8
0
  6
BYBLOCK
 62
     0
 10
52.4823166390667382
 20
105.7857013413949971
 30
0.0
 42
1.0
  0
SEQEND
  5
26BB0
  8
0
  6
BYBLOCK
 62
     0
  0
LINE
  5
269D2
  8
0
  6
BYBLOCK
 62
     0
 10
52.8648699343751289
 20
106.2479274508357037
 30
0.0
 11
53.119905464580718
 21
106.5560781904627987
 31
0.0
  0
LINE
  5
269D3
  8
注釈
 10
53.119905464580718
 20
106.5560781904627987
 30
0.0
 11
72.0452046646027924
 21
129.4228722463749932
 31
0.0
1001
ACAD
1000
DSTYLE
1002
{
1070
   147
1040
0.09
1070
    41
1040
0.8
1070
    42
1040
2.0
1070
    43
1040
0.35
1070
    44
1040
0.0
1070
    73
1070
     0
1070
    74
1070
     0
1070
    77
1070
     0
1070
    78
1070
     8
1070
   140
1040
2.399999999999999
1070
   144
1040
2.0
1070
   176
1070
     2
1070
   177
1070
     2
1070
   178
1070
     2
1070
   271
1070
     1
1070
   272
1070
     1
1070
   340
1005
2278D
1070
   341
1005
36B9
1070
   342
1005
36B9
1070
   371
1070
    -1
1070
   372
1070
    -1
1002
}
  0
POLYLINE
  5
269D4
  8
0
  6
BYBLOCK
 62
     0
 66
     1
 10
0.0
 20
0.0
 30
0.0
 70
     1
 40
0.4
 41
0.4
  0
VERTEX
  5
26BB1
  8
0
  6
BYBLOCK
 62
     0
 10
90.4551496184911343
 20
80.6455785348719871
 30
0.0
 42
1.0
  0
VERTEX
  5
26BB2
  8
0
  6
BYBLOCK
 62
     0
 10
90.2701951292285116
 20
80.2909070856382101
 30
0.0
 42
1.0
  0
SEQEND
  5
26BB3
  8
0
  6
BYBLOCK
 62
     0
  0
LINE
  5
269D5
  8
0
  6
BYBLOCK
 62
     0
 10
90.5476268631224457
 20
80.8229142594889112
 30
0.0
 11
90.7325813523850542
 21
81.1775857087227024
 31
0.0
  0
LINE
  5
269D6
  8
注釈
 10
90.7325813523850542
 20
81.1775857087227024
 30
0.0
 11
101.6497739380461951
 21
102.1125547995408027
 31
0.0
1001
ACAD
1000
DSTYLE
1002
{
1070
   147
1040
0.09
1070
    41
1040
0.8
1070
    42
1040
2.0
1070
    43
1040
0.35
1070
    44
1040
0.0
1070
    73
1070
     0
1070
    74
1070
     0
1070
    77
1070
     0
1070
    78
1070
     8
1070
   140
1040
2.399999999999999
1070
   144
1040
2.0
1070
   176
1070
     2
1070
   177
1070
     2
1070
   178
1070
     2
1070
   271
1070
     1
1070
   272
1070
     1
1070
   340
1005
2278D
1070
   341
1005
36B9
1070
   342
1005
36B9
1070
   371
1070
    -1
1070
   372
1070
    -1
1002
}
  0
POLYLINE
  5
269D7
  8
0
  6
BYBLOCK
 62
     0
 66
     1
 10
0.0
 20
0.0
 30
0.0
 70
     1
 40
0.4
 41
0.4
  0
VERTEX
  5
26BB4
  8
0
  6
BYBLOCK
 62
     0
 10
210.6846293215434969
 20
131.1124826273066901
 30
0.0
 42
1.0
  0
VERTEX
  5
26BB5
  8
0
  6
BYBLOCK
 62
     0
 10
210.4041283556261135
 20
130.8273173978004138
 30
0.0
 42
1.0
  0
SEQEND
  5
26BB6
  8
0
  6
BYBLOCK
 62
     0
  0
LINE
  5
269D8
  8
0
  6
BYBLOCK
 62
     0
 10
210.8248798045021033
 20
131.2550652420599135
 30
0.0
 11
211.1053807704194867
 21
131.5402304715663035
 31
0.0
  0
LINE
  5
269D9
  8
注釈
 10
211.1053807704194867
 20
131.5402304715663035
 30
0.0
 11
226.0474253763019021
 21
146.730736377295699
 31
0.0
1001
ACAD
1000
DSTYLE
1002
{
1070
   147
1040
0.09
1070
    41
1040
0.8
1070
    42
1040
2.0
1070
    43
1040
0.35
1070
    44
1040
0.0
1070
    73
1070
     0
1070
    74
1070
     0
1070
    77
1070
     0
1070
    78
1070
     8
1070
   140
1040
2.399999999999999
1070
   144
1040
2.0
1070
   176
1070
     2
1070
   177
1070
     2
1070
   178
1070
     2
1070
   271
1070
     1
1070
   272
1070
     1
1070
   340
1005
2278D
1070
   341
1005
36B9
1070
   342
1005
36B9
1070
   371
1070
    -1
1070
   372
1070
    -1
1002
}
  0
POLYLINE
  5
269DA
  8
0
  6
BYBLOCK
 62
     0
 66
     1
 10
0.0
 20
0.0
 30
0.0
 70
     1
 40
0.4
 41
0.4
  0
VERTEX
  5
26BB7
  8
0
  6
BYBLOCK
 62
     0
 10
210.1927568414882046
 20
107.435302605827502
 30
0.0
 42
1.0
  0
VERTEX
  5
26BB8
  8
0
  6
BYBLOCK
 62
     0
 10
209.9107788387273956
 20
107.1515978191934977
 30
0.0
 42
1.0
  0
SEQEND
  5
26BB9
  8
0
  6
BYBLOCK
 62
     0
  0
LINE
  5
269DB
  8
0
  6
BYBLOCK
 62
     0
 10
210.3337458428686091
 20
107.5771549991444971
 30
0.0
 11
210.6157238456293044
 21
107.8608597857785014
 31
0.0
  0
LINE
  5
269DC
  8
注釈
 10
210.6157238456293044
 20
107.8608597857785014
 30
0.0
 11
225.0426989210548925
 21
122.3761831282872947
 31
0.0
1001
ACAD
1000
DSTYLE
1002
{
1070
   147
1040
0.09
1070
    41
1040
0.8
1070
    42
1040
2.0
1070
    43
1040
0.35
1070
    44
1040
0.0
1070
    73
1070
     0
1070
    74
1070
     0
1070
    77
1070
     0
1070
    78
1070
     8
1070
   140
1040
2.399999999999999
1070
   144
1040
2.0
1070
   176
1070
     2
1070
   177
1070
     2
1070
   178
1070
     2
1070
   271
1070
     1
1070
   272
1070
     1
1070
   340
1005
2278D
1070
   341
1005
36B9
1070
   342
1005
36B9
1070
   371
1070
    -1
1070
   372
1070
    -1
1002
}
  0
POLYLINE
  5
269DD
  8
0
  6
BYBLOCK
 62
     0
 66
     1
 10
0.0
 20
0.0
 30
0.0
 70
     1
 40
0.4
 41
0.4
  0
VERTEX
  5
26BBA
  8
0
  6
BYBLOCK
 62
     0
 10
210.8661116501837967
 20
74.3867330538247842
 30
0.0
 42
1.0
  0
VERTEX
  5
26BBB
  8
0
  6
BYBLOCK
 62
     0
 10
210.5841336474229877
 20
74.1030282671907941
 30
0.0
 42
1.0
  0
SEQEND
  5
26BBC
  8
0
  6
BYBLOCK
 62
     0
  0
LINE
  5
269DE
  8
0
  6
BYBLOCK
 62
     0
 10
211.0071006515642011
 20
74.5285854471417792
 30
0.0
 11
211.2890786543248964
 21
74.8122902337757836
 31
0.0
  0
LINE
  5
269DF
  8
注釈
 10
211.2890786543248964
 20
74.8122902337757836
 30
0.0
 11
225.716053729750513
 21
89.3276135762846764
 31
0.0
1001
ACAD
1000
DSTYLE
1002
{
1070
   147
1040
0.09
1070
    41
1040
0.8
1070
    42
1040
2.0
1070
    43
1040
0.35
1070
    44
1040
0.0
1070
    73
1070
     0
1070
    74
1070
     0
1070
    77
1070
     0
1070
    78
1070
     8
1070
   140
1040
2.399999999999999
1070
   144
1040
2.0
1070
   176
1070
     2
1070
   177
1070
     2
1070
   178
1070
     2
1070
   271
1070
     1
1070
   272
1070
     1
1070
   340
1005
2278D
1070
   341
1005
36B9
1070
   342
1005
36B9
1070
   371
1070
    -1
1070
   372
1070
    -1
1002
}
  0
POLYLINE
  5
269E0
  8
0
  6
BYBLOCK
 62
     0
 66
     1
 10
0.0
 20
0.0
 30
0.0
 70
     1
 40
0.4
 41
0.4
  0
VERTEX
  5
26BBD
  8
0
  6
BYBLOCK
 62
     0
 10
212.203715320253707
 20
81.4177787132141617
 30
0.0
 42
1.0
  0
VERTEX
  5
26BBE
  8
0
  6
BYBLOCK
 62
     0
 10
211.921737317492898
 20
81.1340739265801574
 30
0.0
 42
1.0
  0
SEQEND
  5
26BBF
  8
0
  6
BYBLOCK
 62
     0
  0
LINE
  5
269E1
  8
0
  6
BYBLOCK
 62
     0
 10
212.3447043216339978
 20
81.5596311065311568
 30
0.0
 11
212.6266823243948068
 21
81.8433358931651611
 31
0.0
  0
LINE
  5
269E2
  8
注釈
 10
212.6266823243948068
 20
81.8433358931651611
 30
0.0
 11
227.0536573998203949
 21
96.3586592356740113
 31
0.0
1001
ACAD
1000
DSTYLE
1002
{
1070
   147
1040
0.09
1070
    41
1040
0.8
1070
    42
1040
2.0
1070
    43
1040
0.35
1070
    44
1040
0.0
1070
    73
1070
     0
1070
    74
1070
     0
1070
    77
1070
     0
1070
    78
1070
     8
1070
   140
1040
2.399999999999999
1070
   144
1040
2.0
1070
   176
1070
     2
1070
   177
1070
     2
1070
   178
1070
     2
1070
   271
1070
     1
1070
   272
1070
     1
1070
   340
1005
2278D
1070
   341
1005
36B9
1070
   342
1005
36B9
1070
   371
1070
    -1
1070
   372
1070
    -1
1002
}
  0
POLYLINE
  5
269E3
  8
0
  6
BYBLOCK
 62
     0
 66
     1
 10
0.0
 20
0.0
 30
0.0
 70
     1
 40
0.4
 41
0.4
  0
VERTEX
  5
26BC0
  8
0
  6
BYBLOCK
 62
     0
 10
87.6484794510295728
 20
59.8524193227516292
 30
0.0
 42
1.0
  0
VERTEX
  5
26BC1
  8
0
  6
BYBLOCK
 62
     0
 10
87.4635249617669643
 20
59.4977478735178309
 30
0.0
 42
1.0
  0
SEQEND
  5
26BC2
  8
0
  6
BYBLOCK
 62
     0
  0
LINE
  5
269E4
  8
0
  6
BYBLOCK
 62
     0
 10
87.7409566956608842
 20
60.029755047368532
 30
0.0
 11
87.9259111849234927
 21
60.3844264966023303
 31
0.0
  0
LINE
  5
269E5
  8
注釈
 10
87.9259111849234927
 20
60.3844264966023303
 30
0.0
 11
105.2861308595146994
 21
93.6746391081048841
 31
0.0
1001
ACAD
1000
DSTYLE
1002
{
1070
   147
1040
0.09
1070
    41
1040
0.8
1070
    42
1040
2.0
1070
    43
1040
0.35
1070
    44
1040
0.0
1070
    73
1070
     0
1070
    74
1070
     0
1070
    77
1070
     0
1070
    78
1070
     8
1070
   140
1040
2.399999999999999
1070
   144
1040
2.0
1070
   176
1070
     2
1070
   177
1070
     2
1070
   178
1070
     2
1070
   271
1070
     1
1070
   272
1070
     1
1070
   340
1005
2278D
1070
   341
1005
36B9
1070
   342
1005
36B9
1070
   371
1070
    -1
1070
   372
1070
    -1
1002
}
  0
POLYLINE
  5
269E6
  8
0
  6
BYBLOCK
 62
     0
 66
     1
 10
0.0
 20
0.0
 30
0.0
 70
     1
 40
0.2
 41
0.2
  0
VERTEX
  5
26BC3
  8
0
  6
BYBLOCK
 62
     0
 10
52.8705582604604629
 20
38.9144008217728512
 30
0.0
 42
1.0
  0
VERTEX
  5
26BC4
  8
0
  6
BYBLOCK
 62
     0
 10
52.6705582604604601
 20
38.9144008217728512
 30
0.0
 42
1.0
  0
SEQEND
  5
26BC5
  8
0
  6
BYBLOCK
 62
     0
  0
LINE
  5
269E7
  8
0
  6
BYBLOCK
 62
     0
 10
52.9705582604604572
 20
38.9144008217728512
 30
0.0
 11
53.1705582604604601
 21
38.9144008217728512
 31
0.0
  0
POLYLINE
  5
269E8
  8
0
  6
BYBLOCK
 62
     0
 66
     1
 10
0.0
 20
0.0
 30
0.0
 70
     1
 40
0.2
 41
0.2
  0
VERTEX
  5
26BC6
  8
0
  6
BYBLOCK
 62
     0
 10
51.9705582604604075
 20
38.9144008217728512
 30
0.0
 42
1.0
  0
VERTEX
  5
26BC7
  8
0
  6
BYBLOCK
 62
     0
 10
52.1705582604604174
 20
38.9144008217728512
 30
0.0
 42
1.0
  0
SEQEND
  5
26BC8
  8
0
  6
BYBLOCK
 62
     0
  0
LINE
  5
269E9
  8
0
  6
BYBLOCK
 62
     0
 10
51.8705582604604132
 20
38.9144008217728512
 30
0.0
 11
51.6705582604604103
 21
38.9144008217728512
 31
0.0
  0
TEXT
  5
269EA
  8
寸法
 62
     2
 10
49.0455582604604174
 20
35.8894008217728526
 30
0.0
 40
2.399999999999999
  1
7
  0
POLYLINE
  5
269EB
  8
0
  6
BYBLOCK
 62
     0
 66
     1
 10
0.0
 20
0.0
 30
0.0
 70
     1
 40
0.2
 41
0.2
  0
VERTEX
  5
26BC9
  8
0
  6
BYBLOCK
 62
     0
 10
52.8705582604604629
 20
38.9144008217728512
 30
0.0
 42
1.0
  0
VERTEX
  5
26BCA
  8
0
  6
BYBLOCK
 62
     0
 10
52.6705582604604601
 20
38.9144008217728512
 30
0.0
 42
1.0
  0
SEQEND
  5
26BCB
  8
0
  6
BYBLOCK
 62
     0
  0
LINE
  5
269EC
  8
0
  6
BYBLOCK
 62
     0
 10
52.9705582604604572
 20
38.9144008217728512
 30
0.0
 11
53.1705582604604601
 21
38.9144008217728512
 31
0.0
  0
POLYLINE
  5
269ED
  8
0
  6
BYBLOCK
 62
     0
 66
     1
 10
0.0
 20
0.0
 30
0.0
 70
     1
 40
0.2
 41
0.2
  0
VERTEX
  5
26BCC
  8
0
  6
BYBLOCK
 62
     0
 10
96.6705582604604672
 20
38.9144008217728512
 30
0.0
 42
1.0
  0
VERTEX
  5
26BCD
  8
0
  6
BYBLOCK
 62
     0
 10
96.8705582604604558
 20
38.9144008217728512
 30
0.0
 42
1.0
  0
SEQEND
  5
26BCE
  8
0
  6
BYBLOCK
 62
     0
  0
LINE
  5
269EE
  8
0
  6
BYBLOCK
 62
     0
 10
96.5705582604604729
 20
38.9144008217728512
 30
0.0
 11
96.3705582604604558
 21
38.9144008217728512
 31
0.0
  0
TEXT
  5
269EF
  8
寸法
 62
     2
 10
71.7705582604604615
 20
35.8894008217728526
 30
0.0
 40
2.399999999999999
  1
440
  0
POLYLINE
  5
269F0
  8
0
  6
BYBLOCK
 62
     0
 66
     1
 10
0.0
 20
0.0
 30
0.0
 70
     1
 40
0.2
 41
0.2
  0
VERTEX
  5
26BCF
  8
0
  6
BYBLOCK
 62
     0
 10
96.6705582604604672
 20
38.9144008217728512
 30
0.0
 42
1.0
  0
VERTEX
  5
26BD0
  8
0
  6
BYBLOCK
 62
     0
 10
96.8705582604604558
 20
38.9144008217728512
 30
0.0
 42
1.0
  0
SEQEND
  5
26BD1
  8
0
  6
BYBLOCK
 62
     0
  0
LINE
  5
269F1
  8
0
  6
BYBLOCK
 62
     0
 10
96.5705582604604729
 20
38.9144008217728512
 30
0.0
 11
96.3705582604604558
 21
38.9144008217728512
 31
0.0
  0
POLYLINE
  5
269F2
  8
0
  6
BYBLOCK
 62
     0
 66
     1
 10
0.0
 20
0.0
 30
0.0
 70
     1
 40
0.2
 41
0.2
  0
VERTEX
  5
26BD2
  8
0
  6
BYBLOCK
 62
     0
 10
97.5705582604605013
 20
38.9144008217728512
 30
0.0
 42
1.0
  0
VERTEX
  5
26BD3
  8
0
  6
BYBLOCK
 62
     0
 10
97.3705582604605269
 20
38.9144008217728512
 30
0.0
 42
1.0
  0
SEQEND
  5
26BD4
  8
0
  6
BYBLOCK
 62
     0
  0
LINE
  5
269F3
  8
0
  6
BYBLOCK
 62
     0
 10
97.670558260460524
 20
38.9144008217728512
 30
0.0
 11
97.8705582604605127
 21
38.9144008217728512
 31
0.0
  0
TEXT
  5
269F4
  8
寸法
 62
     2
 10
98.8955582604605041
 20
35.8894008217728526
 30
0.0
 40
2.399999999999999
  1
7
  0
POLYLINE
  5
269F5
  8
0
  6
BYBLOCK
 62
     0
 66
     1
 10
0.0
 20
0.0
 30
0.0
 70
     1
 40
0.4
 41
0.4
  0
VERTEX
  5
26BD5
  8
0
  6
BYBLOCK
 62
     0
 10
211.4561558625728992
 20
151.639777978816312
 30
0.0
 42
1.0
  0
VERTEX
  5
26BD6
  8
0
  6
BYBLOCK
 62
     0
 10
211.1741778598122039
 20
151.3560731921822082
 30
0.0
 42
1.0
  0
SEQEND
  5
26BD7
  8
0
  6
BYBLOCK
 62
     0
  0
LINE
  5
269F6
  8
0
  6
BYBLOCK
 62
     0
 10
211.5971448639533889
 20
151.7816303721332076
 30
0.0
 11
211.8791228667141127
 21
152.0653351587671978
 31
0.0
  0
LINE
  5
269F7
  8
注釈
 10
211.8791228667141127
 20
152.0653351587671978
 30
0.0
 11
226.3060979421397008
 21
166.5806585012761047
 31
0.0
1001
ACAD
1000
DSTYLE
1002
{
1070
   147
1040
0.09
1070
    41
1040
0.8
1070
    42
1040
2.0
1070
    43
1040
0.35
1070
    44
1040
0.0
1070
    73
1070
     0
1070
    74
1070
     0
1070
    77
1070
     0
1070
    78
1070
     8
1070
   140
1040
2.399999999999999
1070
   144
1040
2.0
1070
   176
1070
     2
1070
   177
1070
     2
1070
   178
1070
     2
1070
   271
1070
     1
1070
   272
1070
     1
1070
   340
1005
2278D
1070
   341
1005
36B9
1070
   342
1005
36B9
1070
   371
1070
    -1
1070
   372
1070
    -1
1002
}
  0
POLYLINE
  5
269F8
  8
0
  6
BYBLOCK
 62
     0
 66
     1
 10
0.0
 20
0.0
 30
0.0
 70
     1
 40
0.4
 41
0.4
  0
VERTEX
  5
26BD8
  8
0
  6
BYBLOCK
 62
     0
 10
212.4561558625728992
 20
141.3488946869944982
 30
0.0
 42
1.0
  0
VERTEX
  5
26BD9
  8
0
  6
BYBLOCK
 62
     0
 10
212.1741778598122039
 20
141.0651899003605081
 30
0.0
 42
1.0
  0
SEQEND
  5
26BDA
  8
0
  6
BYBLOCK
 62
     0
  0
LINE
  5
269F9
  8
0
  6
BYBLOCK
 62
     0
 10
212.5971448639533037
 20
141.4907470803115075
 30
0.0
 11
212.8791228667141127
 21
141.7744518669454976
 31
0.0
  0
LINE
  5
269FA
  8
注釈
 10
212.8791228667141127
 20
141.7744518669454976
 30
0.0
 11
227.3060979421397008
 21
156.2897752094544046
 31
0.0
1001
ACAD
1000
DSTYLE
1002
{
1070
   147
1040
0.09
1070
    41
1040
0.8
1070
    42
1040
2.0
1070
    43
1040
0.35
1070
    44
1040
0.0
1070
    73
1070
     0
1070
    74
1070
     0
1070
    77
1070
     0
1070
    78
1070
     8
1070
   140
1040
2.399999999999999
1070
   144
1040
2.0
1070
   176
1070
     2
1070
   177
1070
     2
1070
   178
1070
     2
1070
   271
1070
     1
1070
   272
1070
     1
1070
   340
1005
2278D
1070
   341
1005
36B9
1070
   342
1005
36B9
1070
   371
1070
    -1
1070
   372
1070
    -1
1002
}
  0
POLYLINE
  5
269FB
  8
0
  6
BYBLOCK
 62
     0
 66
     1
 10
0.0
 20
0.0
 30
0.0
 70
     1
 40
0.4
 41
0.4
  0
VERTEX
  5
26BDB
  8
0
  6
BYBLOCK
 62
     0
 10
211.4561558625728992
 20
151.639777978816312
 30
0.0
 42
1.0
  0
VERTEX
  5
26BDC
  8
0
  6
BYBLOCK
 62
     0
 10
211.1741778598122039
 20
151.3560731921822082
 30
0.0
 42
1.0
  0
SEQEND
  5
26BDD
  8
0
  6
BYBLOCK
 62
     0
  0
LINE
  5
269FC
  8
0
  6
BYBLOCK
 62
     0
 10
211.5971448639533889
 20
151.7816303721332076
 30
0.0
 11
211.8791228667141127
 21
152.0653351587671978
 31
0.0
  0
LINE
  5
269FD
  8
注釈
 10
211.8791228667141127
 20
152.0653351587671978
 30
0.0
 11
226.3060979421397008
 21
166.5806585012761047
 31
0.0
1001
ACAD
1000
DSTYLE
1002
{
1070
   147
1040
0.09
1070
    41
1040
0.8
1070
    42
1040
2.0
1070
    43
1040
0.35
1070
    44
1040
0.0
1070
    73
1070
     0
1070
    74
1070
     0
1070
    77
1070
     0
1070
    78
1070
     8
1070
   140
1040
2.399999999999999
1070
   144
1040
2.0
1070
   176
1070
     2
1070
   177
1070
     2
1070
   178
1070
     2
1070
   271
1070
     1
1070
   272
1070
     1
1070
   340
1005
2278D
1070
   341
1005
36B9
1070
   342
1005
36B9
1070
   371
1070
    -1
1070
   372
1070
    -1
1002
}
  0
POLYLINE
  5
269FE
  8
0
  6
BYBLOCK
 62
     0
 66
     1
 10
0.0
 20
0.0
 30
0.0
 70
     1
 40
0.4
 41
0.4
  0
VERTEX
  5
26BDE
  8
0
  6
BYBLOCK
 62
     0
 10
210.9681776314334058
 20
161.4303128553355009
 30
0.0
 42
1.0
  0
VERTEX
  5
26BDF
  8
0
  6
BYBLOCK
 62
     0
 10
210.6861996286725969
 20
161.1466080687015108
 30
0.0
 42
1.0
  0
SEQEND
  5
26BE0
  8
0
  6
BYBLOCK
 62
     0
  0
LINE
  5
269FF
  8
0
  6
BYBLOCK
 62
     0
 10
211.1091666328138103
 20
161.5721652486525102
 30
0.0
 11
211.3911446355745909
 21
161.8558700352865003
 31
0.0
  0
LINE
  5
26A00
  8
注釈
 10
211.3911446355745909
 20
161.8558700352865003
 30
0.0
 11
225.8181197110000937
 21
176.3711933777954073
 31
0.0
1001
ACAD
1000
DSTYLE
1002
{
1070
   147
1040
0.09
1070
    41
1040
0.8
1070
    42
1040
2.0
1070
    43
1040
0.35
1070
    44
1040
0.0
1070
    73
1070
     0
1070
    74
1070
     0
1070
    77
1070
     0
1070
    78
1070
     8
1070
   140
1040
2.399999999999999
1070
   144
1040
2.0
1070
   176
1070
     2
1070
   177
1070
     2
1070
   178
1070
     2
1070
   271
1070
     1
1070
   272
1070
     1
1070
   340
1005
2278D
1070
   341
1005
36B9
1070
   342
1005
36B9
1070
   371
1070
    -1
1070
   372
1070
    -1
1002
}
  0
POLYLINE
  5
26A01
  8
0
  6
BYBLOCK
 62
     0
 66
     1
 10
0.0
 20
0.0
 30
0.0
 70
     1
 40
0.2000000000000001
 41
0.2000000000000001
  0
VERTEX
  5
26BE1
  8
0
  6
BYBLOCK
 62
     0
 10
205.785066098224604
 20
169.521793795351897
 30
0.0
 42
1.0
  0
VERTEX
  5
26BE2
  8
0
  6
BYBLOCK
 62
     0
 10
205.785066098224604
 20
169.7217937953518003
 30
0.0
 42
1.0
  0
SEQEND
  5
26BE3
  8
0
  6
BYBLOCK
 62
     0
  0
LINE
  5
26A02
  8
0
  6
BYBLOCK
 62
     0
 10
205.785066098224604
 20
169.421793795351789
 30
0.0
 11
205.785066098224604
 21
169.2217937953518003
 31
0.0
  0
POLYLINE
  5
26A03
  8
0
  6
BYBLOCK
 62
     0
 66
     1
 10
0.0
 20
0.0
 30
0.0
 70
     1
 40
0.2
 41
0.2
  0
VERTEX
  5
26BE4
  8
0
  6
BYBLOCK
 62
     0
 10
205.785066098224604
 20
157.055127128685001
 30
0.0
 42
1.0
  0
VERTEX
  5
26BE5
  8
0
  6
BYBLOCK
 62
     0
 10
205.785066098224604
 20
156.8551271286850977
 30
0.0
 42
1.0
  0
SEQEND
  5
26BE6
  8
0
  6
BYBLOCK
 62
     0
  0
LINE
  5
26A04
  8
0
  6
BYBLOCK
 62
     0
 10
205.785066098224604
 20
157.155127128685109
 30
0.0
 11
205.785066098224604
 21
157.3551271286850977
 31
0.0
  0
TEXT
  5
26A05
  8
寸法
 62
     2
 10
205.1600660982246893
 20
161.2884604620184064
 30
0.0
 40
2.399999999999999
  1
38
 50
90.0
  0
POLYLINE
  5
26A06
  8
0
  6
BYBLOCK
 62
     0
 66
     1
 10
0.0
 20
0.0
 30
0.0
 70
     1
 40
0.2000000000000001
 41
0.2000000000000001
  0
VERTEX
  5
26BE7
  8
0
  6
BYBLOCK
 62
     0
 10
205.785066098224604
 20
156.8551271286850977
 30
0.0
 42
1.0
  0
VERTEX
  5
26BE8
  8
0
  6
BYBLOCK
 62
     0
 10
205.785066098224604
 20
157.0551271286850863
 30
0.0
 42
1.0
  0
SEQEND
  5
26BE9
  8
0
  6
BYBLOCK
 62
     0
  0
LINE
  5
26A07
  8
0
  6
BYBLOCK
 62
     0
 10
205.785066098224604
 20
156.7551271286851033
 30
0.0
 11
205.785066098224604
 21
156.5551271286850863
 31
0.0
  0
POLYLINE
  5
26A08
  8
0
  6
BYBLOCK
 62
     0
 66
     1
 10
0.0
 20
0.0
 30
0.0
 70
     1
 40
0.2
 41
0.2
  0
VERTEX
  5
26BEA
  8
0
  6
BYBLOCK
 62
     0
 10
205.785066098224604
 20
133.0586732532428869
 30
0.0
 42
1.0
  0
VERTEX
  5
26BEB
  8
0
  6
BYBLOCK
 62
     0
 10
205.785066098224604
 20
132.8586732532428982
 30
0.0
 42
1.0
  0
SEQEND
  5
26BEC
  8
0
  6
BYBLOCK
 62
     0
  0
LINE
  5
26A09
  8
0
  6
BYBLOCK
 62
     0
 10
205.785066098224604
 20
133.1586732532429096
 30
0.0
 11
205.785066098224604
 21
133.3586732532428982
 31
0.0
  0
TEXT
  5
26A0A
  8
寸法
 62
     2
 10
205.160066098224604
 20
142.9569001909638928
 30
0.0
 40
2.399999999999999
  1
72
 50
90.0
  0
POLYLINE
  5
26A0B
  8
0
  6
BYBLOCK
 62
     0
 66
     1
 10
0.0
 20
0.0
 30
0.0
 70
     1
 40
0.2000000000000001
 41
0.2000000000000001
  0
VERTEX
  5
26BED
  8
0
  6
BYBLOCK
 62
     0
 10
205.7850660982248883
 20
132.8590474654401987
 30
0.0
 42
1.0
  0
VERTEX
  5
26BEE
  8
0
  6
BYBLOCK
 62
     0
 10
205.7850660982248883
 20
133.0590474654401874
 30
0.0
 42
1.0
  0
SEQEND
  5
26BEF
  8
0
  6
BYBLOCK
 62
     0
  0
LINE
  5
26A0C
  8
0
  6
BYBLOCK
 62
     0
 10
205.7850660982248883
 20
132.7590474654402044
 30
0.0
 11
205.7850660982248883
 21
132.5590474654401874
 31
0.0
  0
POLYLINE
  5
26A0D
  8
0
  6
BYBLOCK
 62
     0
 66
     1
 10
0.0
 20
0.0
 30
0.0
 70
     1
 40
0.2
 41
0.2
  0
VERTEX
  5
26BF0
  8
0
  6
BYBLOCK
 62
     0
 10
205.7850660982248883
 20
111.7217937953518003
 30
0.0
 42
1.0
  0
VERTEX
  5
26BF1
  8
0
  6
BYBLOCK
 62
     0
 10
205.7850660982248883
 20
111.5217937953517975
 30
0.0
 42
1.0
  0
SEQEND
  5
26BF2
  8
0
  6
BYBLOCK
 62
     0
  0
LINE
  5
26A0E
  8
0
  6
BYBLOCK
 62
     0
 10
205.7850660982248883
 20
111.8217937953517946
 30
0.0
 11
205.7850660982248883
 21
112.0217937953517975
 31
0.0
  0
TEXT
  5
26A0F
  8
寸法
 62
     2
 10
205.1600660982248883
 20
120.2904206303959
 30
0.0
 40
2.399999999999999
  1
64
 50
90.0
  0
POLYLINE
  5
26A10
  8
0
  6
BYBLOCK
 62
     0
 66
     1
 10
0.0
 20
0.0
 30
0.0
 70
     1
 40
0.2000000000000001
 41
0.2000000000000001
  0
VERTEX
  5
26BF3
  8
0
  6
BYBLOCK
 62
     0
 10
205.785066098225002
 20
111.5217937953517975
 30
0.0
 42
1.0
  0
VERTEX
  5
26BF4
  8
0
  6
BYBLOCK
 62
     0
 10
205.785066098225002
 20
111.7217937953518003
 30
0.0
 42
1.0
  0
SEQEND
  5
26BF5
  8
0
  6
BYBLOCK
 62
     0
  0
LINE
  5
26A11
  8
0
  6
BYBLOCK
 62
     0
 10
205.785066098225002
 20
111.4217937953518032
 30
0.0
 11
205.785066098225002
 21
111.2217937953518003
 31
0.0
  0
POLYLINE
  5
26A12
  8
0
  6
BYBLOCK
 62
     0
 66
     1
 10
0.0
 20
0.0
 30
0.0
 70
     1
 40
0.2
 41
0.2
  0
VERTEX
  5
26BF6
  8
0
  6
BYBLOCK
 62
     0
 10
205.785066098225002
 20
91.7217937953518003
 30
0.0
 42
1.0
  0
VERTEX
  5
26BF7
  8
0
  6
BYBLOCK
 62
     0
 10
205.785066098225002
 20
91.5217937953518259
 30
0.0
 42
1.0
  0
SEQEND
  5
26BF8
  8
0
  6
BYBLOCK
 62
     0
  0
LINE
  5
26A13
  8
0
  6
BYBLOCK
 62
     0
 10
205.785066098225002
 20
91.8217937953518089
 30
0.0
 11
205.785066098225002
 21
92.0217937953518117
 31
0.0
  0
TEXT
  5
26A14
  8
寸法
 62
     2
 10
205.1600660982250872
 20
99.821793795351752
 30
0.0
 40
2.399999999999999
  1
60
 50
90.0
  0
POLYLINE
  5
26A15
  8
0
  6
BYBLOCK
 62
     0
 66
     1
 10
0.0
 20
0.0
 30
0.0
 70
     1
 40
0.2000000000000001
 41
0.2000000000000001
  0
VERTEX
  5
26BF9
  8
0
  6
BYBLOCK
 62
     0
 10
205.7850660982253999
 20
91.5217937953518259
 30
0.0
 42
1.0
  0
VERTEX
  5
26BFA
  8
0
  6
BYBLOCK
 62
     0
 10
205.7850660982253999
 20
91.7217937953518003
 30
0.0
 42
1.0
  0
SEQEND
  5
26BFB
  8
0
  6
BYBLOCK
 62
     0
  0
LINE
  5
26A16
  8
0
  6
BYBLOCK
 62
     0
 10
205.7850660982253999
 20
91.4217937953518032
 30
0.0
 11
205.7850660982253999
 21
91.2217937953518145
 31
0.0
  0
POLYLINE
  5
26A17
  8
0
  6
BYBLOCK
 62
     0
 66
     1
 10
0.0
 20
0.0
 30
0.0
 70
     1
 40
0.2
 41
0.2
  0
VERTEX
  5
26BFC
  8
0
  6
BYBLOCK
 62
     0
 10
205.7850660982253999
 20
84.3938357772646555
 30
0.0
 42
1.0
  0
VERTEX
  5
26BFD
  8
0
  6
BYBLOCK
 62
     0
 10
205.7850660982253999
 20
84.1938357772646526
 30
0.0
 42
1.0
  0
SEQEND
  5
26BFE
  8
0
  6
BYBLOCK
 62
     0
  0
LINE
  5
26A18
  8
0
  6
BYBLOCK
 62
     0
 10
205.7850660982253999
 20
84.4938357772646356
 30
0.0
 11
205.7850660982253999
 21
84.6938357772646668
 31
0.0
  0
TEXT
  5
26A19
  8
寸法
 62
     2
 10
205.1600660982253999
 20
85.9578147863081767
 30
0.0
 40
2.399999999999999
  1
22
 50
90.0
  0
POLYLINE
  5
26A1A
  8
0
  6
BYBLOCK
 62
     0
 66
     1
 10
0.0
 20
0.0
 30
0.0
 70
     1
 40
0.2000000000000001
 41
0.2000000000000001
  0
VERTEX
  5
26BFF
  8
0
  6
BYBLOCK
 62
     0
 10
198.3279760561507032
 20
169.5293673792911022
 30
0.0
 42
1.0
  0
VERTEX
  5
26C00
  8
0
  6
BYBLOCK
 62
     0
 10
198.3279760561507032
 20
169.7293673792910909
 30
0.0
 42
1.0
  0
SEQEND
  5
26C01
  8
0
  6
BYBLOCK
 62
     0
  0
LINE
  5
26A1B
  8
0
  6
BYBLOCK
 62
     0
 10
198.3279760561507032
 20
169.4293673792911932
 30
0.0
 11
198.3279760561507032
 21
169.2293673792910909
 31
0.0
  0
POLYLINE
  5
26A1C
  8
0
  6
BYBLOCK
 62
     0
 66
     1
 10
0.0
 20
0.0
 30
0.0
 70
     1
 40
0.2
 41
0.2
  0
VERTEX
  5
26C02
  8
0
  6
BYBLOCK
 62
     0
 10
198.3279760561507032
 20
51.6314571457774818
 30
0.0
 42
1.0
  0
VERTEX
  5
26C03
  8
0
  6
BYBLOCK
 62
     0
 10
198.3279760561507032
 20
51.4314571457774719
 30
0.0
 42
1.0
  0
SEQEND
  5
26C04
  8
0
  6
BYBLOCK
 62
     0
  0
LINE
  5
26A1D
  8
0
  6
BYBLOCK
 62
     0
 10
198.3279760561507032
 20
51.731457145777469
 30
0.0
 11
198.3279760561507032
 21
51.9314571457774719
 31
0.0
  0
TEXT
  5
26A1E
  8
寸法
 62
     2
 10
197.7029760561507032
 20
107.7804122625341989
 30
0.0
 40
2.399999999999999
  1
600
 50
90.0
  0
POLYLINE
  5
26A1F
  8
0
  6
BYBLOCK
 62
     0
 66
     1
 10
0.0
 20
0.0
 30
0.0
 70
     1
 40
0.2000000000000001
 41
0.2000000000000001
  0
VERTEX
  5
26C05
  8
0
  6
BYBLOCK
 62
     0
 10
47.2475431307772311
 20
109.3325332283588978
 30
0.0
 42
1.0
  0
VERTEX
  5
26C06
  8
0
  6
BYBLOCK
 62
     0
 10
47.2475431307772311
 20
109.5325332283589006
 30
0.0
 42
1.0
  0
SEQEND
  5
26C07
  8
0
  6
BYBLOCK
 62
     0
  0
LINE
  5
26A20
  8
0
  6
BYBLOCK
 62
     0
 10
47.2475431307772311
 20
109.2325332283589034
 30
0.0
 11
47.2475431307772311
 21
109.0325332283589006
 31
0.0
  0
POLYLINE
  5
26A21
  8
0
  6
BYBLOCK
 62
     0
 66
     1
 10
0.0
 20
0.0
 30
0.0
 70
     1
 40
0.2
 41
0.2
  0
VERTEX
  5
26C08
  8
0
  6
BYBLOCK
 62
     0
 10
47.2475431307772311
 20
102.3325332283588978
 30
0.0
 42
1.0
  0
VERTEX
  5
26C09
  8
0
  6
BYBLOCK
 62
     0
 10
47.2475431307772311
 20
102.1325332283588949
 30
0.0
 42
1.0
  0
SEQEND
  5
26C0A
  8
0
  6
BYBLOCK
 62
     0
  0
LINE
  5
26A22
  8
0
  6
BYBLOCK
 62
     0
 10
47.2475431307772311
 20
102.4325332283589063
 30
0.0
 11
47.2475431307772311
 21
102.6325332283588949
 31
0.0
  0
TEXT
  5
26A23
  8
寸法
 62
     2
 10
46.6225431307772595
 20
104.5825332283588978
 30
0.0
 40
1.5
  1
72
 50
90.0
  0
POLYLINE
  5
26A24
  8
0
  6
BYBLOCK
 62
     0
 66
     1
 10
0.0
 20
0.0
 30
0.0
 70
     1
 40
0.2
 41
0.2
  0
VERTEX
  5
26C0B
  8
0
  6
BYBLOCK
 62
     0
 10
47.2475431307775935
 20
109.5325332283589006
 30
0.0
 42
1.0
  0
VERTEX
  5
26C0C
  8
0
  6
BYBLOCK
 62
     0
 10
47.2475431307775935
 20
109.3325332283588978
 30
0.0
 42
1.0
  0
SEQEND
  5
26C0D
  8
0
  6
BYBLOCK
 62
     0
  0
LINE
  5
26A25
  8
0
  6
BYBLOCK
 62
     0
 10
47.2475431307775935
 20
109.6325332283588949
 30
0.0
 11
47.2475431307775935
 21
109.8325332283588978
 31
0.0
  0
POLYLINE
  5
26A26
  8
0
  6
BYBLOCK
 62
     0
 66
     1
 10
0.0
 20
0.0
 30
0.0
 70
     1
 40
0.2000000000000001
 41
0.2000000000000001
  0
VERTEX
  5
26C0E
  8
0
  6
BYBLOCK
 62
     0
 10
47.2475431307775793
 20
113.1325332283588949
 30
0.0
 42
1.0
  0
VERTEX
  5
26C0F
  8
0
  6
BYBLOCK
 62
     0
 10
47.2475431307775793
 20
113.3325332283588978
 30
0.0
 42
1.0
  0
SEQEND
  5
26C10
  8
0
  6
BYBLOCK
 62
     0
  0
LINE
  5
26A27
  8
0
  6
BYBLOCK
 62
     0
 10
47.2475431307775793
 20
113.0325332283589006
 30
0.0
 11
47.2475431307775793
 21
112.8325332283588978
 31
0.0
  0
TEXT
  5
26A28
  8
寸法
 62
     2
 10
46.6225431307776006
 20
110.0825332283588978
 30
0.0
 40
1.5
  1
38
 50
90.0
  0
POLYLINE
  5
26A29
  8
0
  6
BYBLOCK
 62
     0
 66
     1
 10
0.0
 20
0.0
 30
0.0
 70
     1
 40
0.2
 41
0.2
  0
VERTEX
  5
26C11
  8
0
  6
BYBLOCK
 62
     0
 10
52.8705582604604629
 20
46.7883101168616165
 30
0.0
 42
1.0
  0
VERTEX
  5
26C12
  8
0
  6
BYBLOCK
 62
     0
 10
52.6705582604604601
 20
46.7883101168616165
 30
0.0
 42
1.0
  0
SEQEND
  5
26C13
  8
0
  6
BYBLOCK
 62
     0
  0
LINE
  5
26A2A
  8
0
  6
BYBLOCK
 62
     0
 10
52.9705582604604572
 20
46.7883101168616165
 30
0.0
 11
53.1705582604604601
 21
46.7883101168616165
 31
0.0
  0
POLYLINE
  5
26A2B
  8
0
  6
BYBLOCK
 62
     0
 66
     1
 10
0.0
 20
0.0
 30
0.0
 70
     1
 40
0.2
 41
0.2
  0
VERTEX
  5
26C14
  8
0
  6
BYBLOCK
 62
     0
 10
58.4705582604604786
 20
46.7883101168616165
 30
0.0
 42
1.0
  0
VERTEX
  5
26C15
  8
0
  6
BYBLOCK
 62
     0
 10
58.6705582604604814
 20
46.7883101168616165
 30
0.0
 42
1.0
  0
SEQEND
  5
26C16
  8
0
  6
BYBLOCK
 62
     0
  0
LINE
  5
26A2C
  8
0
  6
BYBLOCK
 62
     0
 10
58.37055826046047
 20
46.7883101168616165
 30
0.0
 11
58.1705582604604814
 21
46.7883101168616165
 31
0.0
  0
TEXT
  5
26A2D
  8
寸法
 62
     2
 10
54.1705582604604672
 20
44.3633101168616193
 30
0.0
 40
1.8
  1
58
  0
POLYLINE
  5
26A2E
  8
0
  6
BYBLOCK
 62
     0
 66
     1
 10
0.0
 20
0.0
 30
0.0
 70
     1
 40
0.2
 41
0.2
  0
VERTEX
  5
26C17
  8
0
  6
BYBLOCK
 62
     0
 10
58.6705582604604885
 20
46.7883101168616165
 30
0.0
 42
1.0
  0
VERTEX
  5
26C18
  8
0
  6
BYBLOCK
 62
     0
 10
58.4705582604604786
 20
46.7883101168616165
 30
0.0
 42
1.0
  0
SEQEND
  5
26C19
  8
0
  6
BYBLOCK
 62
     0
  0
LINE
  5
26A2F
  8
0
  6
BYBLOCK
 62
     0
 10
58.7705582604604899
 20
46.7883101168616165
 30
0.0
 11
58.9705582604604928
 21
46.7883101168616165
 31
0.0
  0
POLYLINE
  5
26A30
  8
0
  6
BYBLOCK
 62
     0
 66
     1
 10
0.0
 20
0.0
 30
0.0
 70
     1
 40
0.2
 41
0.2
  0
VERTEX
  5
26C1A
  8
0
  6
BYBLOCK
 62
     0
 10
75.4705582604604928
 20
46.7883101168616165
 30
0.0
 42
1.0
  0
VERTEX
  5
26C1B
  8
0
  6
BYBLOCK
 62
     0
 10
75.6705582604604814
 20
46.7883101168616165
 30
0.0
 42
1.0
  0
SEQEND
  5
26C1C
  8
0
  6
BYBLOCK
 62
     0
  0
LINE
  5
26A31
  8
0
  6
BYBLOCK
 62
     0
 10
75.3705582604604842
 20
46.7883101168616165
 30
0.0
 11
75.1705582604604814
 21
46.7883101168616165
 31
0.0
  0
TEXT
  5
26A32
  8
寸法
 62
     2
 10
65.1205582604604842
 20
44.3633101168616335
 30
0.0
 40
1.8
  1
170
  0
POLYLINE
  5
26A33
  8
0
  6
BYBLOCK
 62
     0
 66
     1
 10
0.0
 20
0.0
 30
0.0
 70
     1
 40
0.2
 41
0.2
  0
VERTEX
  5
26C1D
  8
0
  6
BYBLOCK
 62
     0
 10
75.4705582604604928
 20
46.7303646035087183
 30
0.0
 42
1.0
  0
VERTEX
  5
26C1E
  8
0
  6
BYBLOCK
 62
     0
 10
75.6705582604604814
 20
46.7303646035087183
 30
0.0
 42
1.0
  0
SEQEND
  5
26C1F
  8
0
  6
BYBLOCK
 62
     0
  0
LINE
  5
26A34
  8
0
  6
BYBLOCK
 62
     0
 10
75.3705582604604842
 20
46.7303646035087183
 30
0.0
 11
75.1705582604604814
 21
46.7303646035087183
 31
0.0
  0
POLYLINE
  5
26A35
  8
0
  6
BYBLOCK
 62
     0
 66
     1
 10
0.0
 20
0.0
 30
0.0
 70
     1
 40
0.2
 41
0.2
  0
VERTEX
  5
26C20
  8
0
  6
BYBLOCK
 62
     0
 10
77.4705582604604643
 20
46.7303646035087183
 30
0.0
 42
1.0
  0
VERTEX
  5
26C21
  8
0
  6
BYBLOCK
 62
     0
 10
77.2705582604604757
 20
46.7303646035087183
 30
0.0
 42
1.0
  0
SEQEND
  5
26C22
  8
0
  6
BYBLOCK
 62
     0
  0
LINE
  5
26A36
  8
0
  6
BYBLOCK
 62
     0
 10
77.5705582604604729
 20
46.7303646035087183
 30
0.0
 11
77.7705582604604757
 21
46.7303646035087183
 31
0.0
  0
TEXT
  5
26A37
  8
寸法
 62
     2
 10
75.2705582604604757
 20
44.3053646035087283
 30
0.0
 40
1.8
  1
18
  0
POLYLINE
  5
26A38
  8
0
  6
BYBLOCK
 62
     0
 66
     1
 10
0.0
 20
0.0
 30
0.0
 70
     1
 40
0.2
 41
0.2
  0
VERTEX
  5
26C23
  8
0
  6
BYBLOCK
 62
     0
 10
77.4705582604604643
 20
46.7883101168616165
 30
0.0
 42
1.0
  0
VERTEX
  5
26C24
  8
0
  6
BYBLOCK
 62
     0
 10
77.2705582604604757
 20
46.7883101168616165
 30
0.0
 42
1.0
  0
SEQEND
  5
26C25
  8
0
  6
BYBLOCK
 62
     0
  0
LINE
  5
26A39
  8
0
  6
BYBLOCK
 62
     0
 10
77.5705582604604729
 20
46.7883101168616165
 30
0.0
 11
77.7705582604604757
 21
46.7883101168616165
 31
0.0
  0
POLYLINE
  5
26A3A
  8
0
  6
BYBLOCK
 62
     0
 66
     1
 10
0.0
 20
0.0
 30
0.0
 70
     1
 40
0.2
 41
0.2
  0
VERTEX
  5
26C26
  8
0
  6
BYBLOCK
 62
     0
 10
94.2705582604604757
 20
46.7883101168616165
 30
0.0
 42
1.0
  0
VERTEX
  5
26C27
  8
0
  6
BYBLOCK
 62
     0
 10
94.4705582604604786
 20
46.7883101168616165
 30
0.0
 42
1.0
  0
SEQEND
  5
26C28
  8
0
  6
BYBLOCK
 62
     0
  0
LINE
  5
26A3B
  8
0
  6
BYBLOCK
 62
     0
 10
94.1705582604604814
 20
46.7883101168616165
 30
0.0
 11
93.9705582604604643
 21
46.7883101168616165
 31
0.0
  0
TEXT
  5
26A3C
  8
寸法
 62
     2
 10
83.9205582604604814
 20
44.3633101168616335
 30
0.0
 40
1.8
  1
170
  0
POLYLINE
  5
26A3D
  8
0
  6
BYBLOCK
 62
     0
 66
     1
 10
0.0
 20
0.0
 30
0.0
 70
     1
 40
0.2
 41
0.2
  0
VERTEX
  5
26C29
  8
0
  6
BYBLOCK
 62
     0
 10
94.4705582604604786
 20
46.7883101168616165
 30
0.0
 42
1.0
  0
VERTEX
  5
26C2A
  8
0
  6
BYBLOCK
 62
     0
 10
94.2705582604604757
 20
46.7883101168616165
 30
0.0
 42
1.0
  0
SEQEND
  5
26C2B
  8
0
  6
BYBLOCK
 62
     0
  0
LINE
  5
26A3E
  8
0
  6
BYBLOCK
 62
     0
 10
94.5705582604604871
 20
46.7883101168616165
 30
0.0
 11
94.7705582604604899
 21
46.7883101168616165
 31
0.0
  0
POLYLINE
  5
26A3F
  8
0
  6
BYBLOCK
 62
     0
 66
     1
 10
0.0
 20
0.0
 30
0.0
 70
     1
 40
0.2
 41
0.2
  0
VERTEX
  5
26C2C
  8
0
  6
BYBLOCK
 62
     0
 10
96.6705582604604672
 20
46.7883101168616165
 30
0.0
 42
1.0
  0
VERTEX
  5
26C2D
  8
0
  6
BYBLOCK
 62
     0
 10
96.8705582604604558
 20
46.7883101168616165
 30
0.0
 42
1.0
  0
SEQEND
  5
26C2E
  8
0
  6
BYBLOCK
 62
     0
  0
LINE
  5
26A40
  8
0
  6
BYBLOCK
 62
     0
 10
96.5705582604604729
 20
46.7883101168616165
 30
0.0
 11
96.3705582604604558
 21
46.7883101168616165
 31
0.0
  0
TEXT
  5
26A41
  8
本体1
 62
     2
 10
94.0705582604604729
 20
44.3633101168616335
 30
0.0
 40
1.8
  1
24
  0
POLYLINE
  5
26A42
  8
0
  6
BYBLOCK
 62
     0
 66
     1
 10
0.0
 20
0.0
 30
0.0
 70
     1
 40
0.2
 41
0.2
  0
VERTEX
  5
26C2F
  8
0
  6
BYBLOCK
 62
     0
 10
47.2475431307772027
 20
95.9325332283589347
 30
0.0
 42
1.0
  0
VERTEX
  5
26C30
  8
0
  6
BYBLOCK
 62
     0
 10
47.2475431307772027
 20
95.7325332283589461
 30
0.0
 42
1.0
  0
SEQEND
  5
26C31
  8
0
  6
BYBLOCK
 62
     0
  0
LINE
  5
26A43
  8
0
  6
BYBLOCK
 62
     0
 10
47.2475431307772027
 20
96.0325332283589432
 30
0.0
 11
47.2475431307772027
 21
96.2325332283589461
 31
0.0
  0
POLYLINE
  5
26A44
  8
0
  6
BYBLOCK
 62
     0
 66
     1
 10
0.0
 20
0.0
 30
0.0
 70
     1
 40
0.2000000000000001
 41
0.2000000000000001
  0
VERTEX
  5
26C32
  8
0
  6
BYBLOCK
 62
     0
 10
47.2475431307772027
 20
102.1325332283588949
 30
0.0
 42
1.0
  0
VERTEX
  5
26C33
  8
0
  6
BYBLOCK
 62
     0
 10
47.2475431307772027
 20
102.3325332283588978
 30
0.0
 42
1.0
  0
SEQEND
  5
26C34
  8
0
  6
BYBLOCK
 62
     0
  0
LINE
  5
26A45
  8
0
  6
BYBLOCK
 62
     0
 10
47.2475431307772027
 20
102.0325332283589006
 30
0.0
 11
47.2475431307772027
 21
101.8325332283588978
 31
0.0
  0
TEXT
  5
26A46
  8
寸法
 62
     2
 10
46.6225431307772169
 20
97.5325332283589148
 30
0.0
 40
1.8
  1
64
 50
90.0
  0
POLYLINE
  5
26A47
  8
0
  6
BYBLOCK
 62
     0
 66
     1
 10
0.0
 20
0.0
 30
0.0
 70
     1
 40
0.2000000000000001
 41
0.2000000000000001
  0
VERTEX
  5
26C35
  8
0
  6
BYBLOCK
 62
     0
 10
47.2475431307772311
 20
95.7325332283589461
 30
0.0
 42
1.0
  0
VERTEX
  5
26C36
  8
0
  6
BYBLOCK
 62
     0
 10
47.2475431307772311
 20
95.9325332283589205
 30
0.0
 42
1.0
  0
SEQEND
  5
26C37
  8
0
  6
BYBLOCK
 62
     0
  0
LINE
  5
26A48
  8
0
  6
BYBLOCK
 62
     0
 10
47.2475431307772311
 20
95.6325332283589233
 30
0.0
 11
47.2475431307772311
 21
95.4325332283589347
 31
0.0
  0
POLYLINE
  5
26A49
  8
0
  6
BYBLOCK
 62
     0
 66
     1
 10
0.0
 20
0.0
 30
0.0
 70
     1
 40
0.2
 41
0.2
  0
VERTEX
  5
26C38
  8
0
  6
BYBLOCK
 62
     0
 10
47.2475431307772311
 20
89.9325332283589205
 30
0.0
 42
1.0
  0
VERTEX
  5
26C39
  8
0
  6
BYBLOCK
 62
     0
 10
47.2475431307772311
 20
89.7325332283589177
 30
0.0
 42
1.0
  0
SEQEND
  5
26C3A
  8
0
  6
BYBLOCK
 62
     0
  0
LINE
  5
26A4A
  8
0
  6
BYBLOCK
 62
     0
 10
47.2475431307772311
 20
90.032533228358929
 30
0.0
 11
47.2475431307772311
 21
90.2325332283589319
 31
0.0
  0
TEXT
  5
26A4B
  8
寸法
 62
     2
 10
46.6225431307772524
 20
91.4825332283588892
 30
0.0
 40
1.8
  1
60
 50
90.0
  0
POLYLINE
  5
26A4C
  8
0
  6
BYBLOCK
 62
     0
 66
     1
 10
0.0
 20
0.0
 30
0.0
 70
     1
 40
0.2000000000000001
 41
0.2000000000000001
  0
VERTEX
  5
26C3B
  8
0
  6
BYBLOCK
 62
     0
 10
47.2475431307772524
 20
89.7325332283589177
 30
0.0
 42
1.0
  0
VERTEX
  5
26C3C
  8
0
  6
BYBLOCK
 62
     0
 10
47.2475431307772524
 20
89.9325332283589205
 30
0.0
 42
1.0
  0
SEQEND
  5
26C3D
  8
0
  6
BYBLOCK
 62
     0
  0
LINE
  5
26A4D
  8
0
  6
BYBLOCK
 62
     0
 10
47.2475431307772524
 20
89.6325332283589233
 30
0.0
 11
47.2475431307772524
 21
89.4325332283589063
 31
0.0
  0
POLYLINE
  5
26A4E
  8
0
  6
BYBLOCK
 62
     0
 66
     1
 10
0.0
 20
0.0
 30
0.0
 70
     1
 40
0.2
 41
0.2
  0
VERTEX
  5
26C3E
  8
0
  6
BYBLOCK
 62
     0
 10
47.2475431307772524
 20
87.7325332283589034
 30
0.0
 42
1.0
  0
VERTEX
  5
26C3F
  8
0
  6
BYBLOCK
 62
     0
 10
47.2475431307772524
 20
87.532533228358929
 30
0.0
 42
1.0
  0
SEQEND
  5
26C40
  8
0
  6
BYBLOCK
 62
     0
  0
LINE
  5
26A4F
  8
0
  6
BYBLOCK
 62
     0
 10
47.2475431307772524
 20
87.8325332283589262
 30
0.0
 11
47.2475431307772524
 21
88.0325332283589148
 31
0.0
  0
TEXT
  5
26A50
  8
寸法
 62
     2
 10
46.6225431307772666
 20
87.2325332283589034
 30
0.0
 40
1.8
  1
22
 50
90.0
  0
POLYLINE
  5
26A51
  8
0
  6
BYBLOCK
 62
     0
 66
     1
 10
0.0
 20
0.0
 30
0.0
 70
     1
 40
0.2000000000000001
 41
0.2000000000000001
  0
VERTEX
  5
26C41
  8
0
  6
BYBLOCK
 62
     0
 10
205.7850660982257978
 20
84.1938357772646526
 30
0.0
 42
1.0
  0
VERTEX
  5
26C42
  8
0
  6
BYBLOCK
 62
     0
 10
205.7850660982257978
 20
84.3938357772646555
 30
0.0
 42
1.0
  0
SEQEND
  5
26C43
  8
0
  6
BYBLOCK
 62
     0
  0
LINE
  5
26A52
  8
0
  6
BYBLOCK
 62
     0
 10
205.7850660982257978
 20
84.0938357772646441
 30
0.0
 11
205.7850660982257978
 21
83.8938357772646413
 31
0.0
  0
POLYLINE
  5
26A53
  8
0
  6
BYBLOCK
 62
     0
 66
     1
 10
0.0
 20
0.0
 30
0.0
 70
     1
 40
0.2
 41
0.2
  0
VERTEX
  5
26C44
  8
0
  6
BYBLOCK
 62
     0
 10
205.7850660982257978
 20
64.2959255437509825
 30
0.0
 42
1.0
  0
VERTEX
  5
26C45
  8
0
  6
BYBLOCK
 62
     0
 10
205.7850660982257978
 20
64.0959255437509938
 30
0.0
 42
1.0
  0
SEQEND
  5
26C46
  8
0
  6
BYBLOCK
 62
     0
  0
LINE
  5
26A54
  8
0
  6
BYBLOCK
 62
     0
 10
205.7850660982257978
 20
64.395925543750991
 30
0.0
 11
205.7850660982257978
 21
64.5959255437509938
 31
0.0
  0
TEXT
  5
26A55
  8
寸法
 62
     2
 10
205.1600660982259114
 20
72.4448806605077493
 30
0.0
 40
2.399999999999999
  1
60
 50
90.0
  0
POLYLINE
  5
26A56
  8
0
  6
BYBLOCK
 62
     0
 66
     1
 10
0.0
 20
0.0
 30
0.0
 70
     1
 40
0.2000000000000001
 41
0.2000000000000001
  0
VERTEX
  5
26C47
  8
0
  6
BYBLOCK
 62
     0
 10
205.7850660982261104
 20
64.0959255437509938
 30
0.0
 42
1.0
  0
VERTEX
  5
26C48
  8
0
  6
BYBLOCK
 62
     0
 10
205.7850660982261104
 20
64.2959255437509825
 30
0.0
 42
1.0
  0
SEQEND
  5
26C49
  8
0
  6
BYBLOCK
 62
     0
  0
LINE
  5
26A57
  8
0
  6
BYBLOCK
 62
     0
 10
205.7850660982261104
 20
63.9959255437509782
 30
0.0
 11
205.7850660982261104
 21
63.7959255437509896
 31
0.0
  0
POLYLINE
  5
26A58
  8
0
  6
BYBLOCK
 62
     0
 66
     1
 10
0.0
 20
0.0
 30
0.0
 70
     1
 40
0.2
 41
0.2
  0
VERTEX
  5
26C4A
  8
0
  6
BYBLOCK
 62
     0
 10
205.7850660982261957
 20
51.6296694914433019
 30
0.0
 42
1.0
  0
VERTEX
  5
26C4B
  8
0
  6
BYBLOCK
 62
     0
 10
205.7850660982261957
 20
51.4296694914432919
 30
0.0
 42
1.0
  0
SEQEND
  5
26C4C
  8
0
  6
BYBLOCK
 62
     0
  0
LINE
  5
26A59
  8
0
  6
BYBLOCK
 62
     0
 10
205.7850660982261957
 20
51.7296694914432891
 30
0.0
 11
205.7850660982261957
 21
51.9296694914432919
 31
0.0
  0
TEXT
  5
26A5A
  8
寸法
 62
     2
 10
205.1600660982261957
 20
55.8627975175970803
 30
0.0
 40
2.399999999999999
  1
38
 50
90.0
  0
POLYLINE
  5
26A5B
  8
0
  6
BYBLOCK
 62
     0
 66
     1
 10
0.0
 20
0.0
 30
0.0
 70
     1
 40
0.2000000000000001
 41
0.2000000000000001
  0
VERTEX
  5
26C4D
  8
0
  6
BYBLOCK
 62
     0
 10
47.2475431307773377
 20
56.9325332283588565
 30
0.0
 42
1.0
  0
VERTEX
  5
26C4E
  8
0
  6
BYBLOCK
 62
     0
 10
47.2475431307773377
 20
57.1325332283588523
 30
0.0
 42
1.0
  0
SEQEND
  5
26C4F
  8
0
  6
BYBLOCK
 62
     0
  0
LINE
  5
26A5C
  8
0
  6
BYBLOCK
 62
     0
 10
47.2475431307773377
 20
56.832533228358848
 30
0.0
 11
47.2475431307773377
 21
56.6325332283588594
 31
0.0
  0
POLYLINE
  5
26A5D
  8
0
  6
BYBLOCK
 62
     0
 66
     1
 10
0.0
 20
0.0
 30
0.0
 70
     1
 40
0.2
 41
0.2
  0
VERTEX
  5
26C50
  8
0
  6
BYBLOCK
 62
     0
 10
47.2475431307773377
 20
53.3325332283589688
 30
0.0
 42
1.0
  0
VERTEX
  5
26C51
  8
0
  6
BYBLOCK
 62
     0
 10
47.2475431307773377
 20
53.1325332283589731
 30
0.0
 42
1.0
  0
SEQEND
  5
26C52
  8
0
  6
BYBLOCK
 62
     0
  0
LINE
  5
26A5E
  8
0
  6
BYBLOCK
 62
     0
 10
47.2475431307773377
 20
53.4325332283589702
 30
0.0
 11
47.2475431307773377
 21
53.6325332283589589
 31
0.0
  0
TEXT
  5
26A5F
  8
寸法
 62
     2
 10
46.6225431307773519
 20
53.6325332283588878
 30
0.0
 40
1.8
  1
38
 50
90.0
  0
POLYLINE
  5
26A60
  8
0
  6
BYBLOCK
 62
     0
 66
     1
 10
0.0
 20
0.0
 30
0.0
 70
     1
 40
0.2000000000000001
 41
0.2000000000000001
  0
VERTEX
  5
26C53
  8
0
  6
BYBLOCK
 62
     0
 10
47.2475431307772595
 20
87.5325332283589148
 30
0.0
 42
1.0
  0
VERTEX
  5
26C54
  8
0
  6
BYBLOCK
 62
     0
 10
47.2475431307772595
 20
87.7325332283588892
 30
0.0
 42
1.0
  0
SEQEND
  5
26C55
  8
0
  6
BYBLOCK
 62
     0
  0
LINE
  5
26A61
  8
0
  6
BYBLOCK
 62
     0
 10
47.2475431307772595
 20
87.4325332283589063
 30
0.0
 11
47.2475431307772595
 21
87.2325332283589034
 31
0.0
  0
POLYLINE
  5
26A62
  8
0
  6
BYBLOCK
 62
     0
 66
     1
 10
0.0
 20
0.0
 30
0.0
 70
     1
 40
0.2
 41
0.2
  0
VERTEX
  5
26C56
  8
0
  6
BYBLOCK
 62
     0
 10
47.2475431307772595
 20
81.7325332283589034
 30
0.0
 42
1.0
  0
VERTEX
  5
26C57
  8
0
  6
BYBLOCK
 62
     0
 10
47.2475431307772595
 20
81.5325332283589148
 30
0.0
 42
1.0
  0
SEQEND
  5
26C58
  8
0
  6
BYBLOCK
 62
     0
  0
LINE
  5
26A63
  8
0
  6
BYBLOCK
 62
     0
 10
47.2475431307772595
 20
81.832533228358912
 30
0.0
 11
47.2475431307772595
 21
82.0325332283589148
 31
0.0
  0
TEXT
  5
26A64
  8
寸法
 62
     2
 10
46.6225431307772809
 20
83.2825332283588864
 30
0.0
 40
1.8
  1
60
 50
90.0
  0
POLYLINE
  5
26A65
  8
0
  6
BYBLOCK
 62
     0
 66
     1
 10
0.0
 20
0.0
 30
0.0
 70
     1
 40
0.2000000000000001
 41
0.2000000000000001
  0
VERTEX
  5
26C59
  8
0
  6
BYBLOCK
 62
     0
 10
47.2475431307772809
 20
81.5325332283589148
 30
0.0
 42
1.0
  0
VERTEX
  5
26C5A
  8
0
  6
BYBLOCK
 62
     0
 10
47.2475431307772809
 20
81.7325332283589034
 30
0.0
 42
1.0
  0
SEQEND
  5
26C5B
  8
0
  6
BYBLOCK
 62
     0
  0
LINE
  5
26A66
  8
0
  6
BYBLOCK
 62
     0
 10
47.2475431307772809
 20
81.4325332283589063
 30
0.0
 11
47.2475431307772809
 21
81.2325332283589034
 31
0.0
  0
POLYLINE
  5
26A67
  8
0
  6
BYBLOCK
 62
     0
 66
     1
 10
0.0
 20
0.0
 30
0.0
 70
     1
 40
0.2
 41
0.2
  0
VERTEX
  5
26C5C
  8
0
  6
BYBLOCK
 62
     0
 10
47.2475431307772809
 20
79.5325332283589006
 30
0.0
 42
1.0
  0
VERTEX
  5
26C5D
  8
0
  6
BYBLOCK
 62
     0
 10
47.2475431307772809
 20
79.332533228358912
 30
0.0
 42
1.0
  0
SEQEND
  5
26C5E
  8
0
  6
BYBLOCK
 62
     0
  0
LINE
  5
26A68
  8
0
  6
BYBLOCK
 62
     0
 10
47.2475431307772809
 20
79.6325332283589091
 30
0.0
 11
47.2475431307772809
 21
79.832533228358912
 31
0.0
  0
TEXT
  5
26A69
  8
寸法
 62
     2
 10
46.6225431307773022
 20
79.0325332283588864
 30
0.0
 40
1.8
  1
22
 50
90.0
  0
POLYLINE
  5
26A6A
  8
0
  6
BYBLOCK
 62
     0
 66
     1
 10
0.0
 20
0.0
 30
0.0
 70
     1
 40
0.2000000000000001
 41
0.2000000000000001
  0
VERTEX
  5
26C5F
  8
0
  6
BYBLOCK
 62
     0
 10
47.2475431307772666
 20
79.332533228358912
 30
0.0
 42
1.0
  0
VERTEX
  5
26C60
  8
0
  6
BYBLOCK
 62
     0
 10
47.2475431307772666
 20
79.5325332283589006
 30
0.0
 42
1.0
  0
SEQEND
  5
26C61
  8
0
  6
BYBLOCK
 62
     0
  0
LINE
  5
26A6B
  8
0
  6
BYBLOCK
 62
     0
 10
47.2475431307772666
 20
79.2325332283589034
 30
0.0
 11
47.2475431307772666
 21
79.0325332283589006
 31
0.0
  0
POLYLINE
  5
26A6C
  8
0
  6
BYBLOCK
 62
     0
 66
     1
 10
0.0
 20
0.0
 30
0.0
 70
     1
 40
0.2
 41
0.2
  0
VERTEX
  5
26C62
  8
0
  6
BYBLOCK
 62
     0
 10
47.2475431307772666
 20
73.5325332283589006
 30
0.0
 42
1.0
  0
VERTEX
  5
26C63
  8
0
  6
BYBLOCK
 62
     0
 10
47.2475431307772666
 20
73.332533228358912
 30
0.0
 42
1.0
  0
SEQEND
  5
26C64
  8
0
  6
BYBLOCK
 62
     0
  0
LINE
  5
26A6D
  8
0
  6
BYBLOCK
 62
     0
 10
47.2475431307772666
 20
73.6325332283589091
 30
0.0
 11
47.2475431307772666
 21
73.832533228358912
 31
0.0
  0
TEXT
  5
26A6E
  8
寸法
 62
     2
 10
46.6225431307772809
 20
75.0825332283588835
 30
0.0
 40
1.8
  1
60
 50
90.0
  0
POLYLINE
  5
26A6F
  8
0
  6
BYBLOCK
 62
     0
 66
     1
 10
0.0
 20
0.0
 30
0.0
 70
     1
 40
0.2000000000000001
 41
0.2000000000000001
  0
VERTEX
  5
26C65
  8
0
  6
BYBLOCK
 62
     0
 10
47.2475431307772666
 20
73.332533228358912
 30
0.0
 42
1.0
  0
VERTEX
  5
26C66
  8
0
  6
BYBLOCK
 62
     0
 10
47.2475431307772666
 20
73.5325332283589006
 30
0.0
 42
1.0
  0
SEQEND
  5
26C67
  8
0
  6
BYBLOCK
 62
     0
  0
LINE
  5
26A70
  8
0
  6
BYBLOCK
 62
     0
 10
47.2475431307772666
 20
73.2325332283589034
 30
0.0
 11
47.2475431307772666
 21
73.0325332283589006
 31
0.0
  0
POLYLINE
  5
26A71
  8
0
  6
BYBLOCK
 62
     0
 66
     1
 10
0.0
 20
0.0
 30
0.0
 70
     1
 40
0.2
 41
0.2
  0
VERTEX
  5
26C68
  8
0
  6
BYBLOCK
 62
     0
 10
47.2475431307772666
 20
71.3325332283588978
 30
0.0
 42
1.0
  0
VERTEX
  5
26C69
  8
0
  6
BYBLOCK
 62
     0
 10
47.2475431307772666
 20
71.1325332283589091
 30
0.0
 42
1.0
  0
SEQEND
  5
26C6A
  8
0
  6
BYBLOCK
 62
     0
  0
LINE
  5
26A72
  8
0
  6
BYBLOCK
 62
     0
 10
47.2475431307772666
 20
71.4325332283589063
 30
0.0
 11
47.2475431307772666
 21
71.6325332283589091
 31
0.0
  0
TEXT
  5
26A73
  8
寸法
 62
     2
 10
46.6225431307772809
 20
70.8325332283588551
 30
0.0
 40
1.8
  1
22
 50
90.0
  0
POLYLINE
  5
26A74
  8
0
  6
BYBLOCK
 62
     0
 66
     1
 10
0.0
 20
0.0
 30
0.0
 70
     1
 40
0.2000000000000001
 41
0.2000000000000001
  0
VERTEX
  5
26C6B
  8
0
  6
BYBLOCK
 62
     0
 10
47.2475431307773022
 20
71.1325332283588949
 30
0.0
 42
1.0
  0
VERTEX
  5
26C6C
  8
0
  6
BYBLOCK
 62
     0
 10
47.2475431307773022
 20
71.3325332283588835
 30
0.0
 42
1.0
  0
SEQEND
  5
26C6D
  8
0
  6
BYBLOCK
 62
     0
  0
LINE
  5
26A75
  8
0
  6
BYBLOCK
 62
     0
 10
47.2475431307773022
 20
71.0325332283588864
 30
0.0
 11
47.2475431307773022
 21
70.8325332283588835
 31
0.0
  0
POLYLINE
  5
26A76
  8
0
  6
BYBLOCK
 62
     0
 66
     1
 10
0.0
 20
0.0
 30
0.0
 70
     1
 40
0.2
 41
0.2
  0
VERTEX
  5
26C6E
  8
0
  6
BYBLOCK
 62
     0
 10
47.2475431307773022
 20
65.3325332283588835
 30
0.0
 42
1.0
  0
VERTEX
  5
26C6F
  8
0
  6
BYBLOCK
 62
     0
 10
47.2475431307773022
 20
65.1325332283588949
 30
0.0
 42
1.0
  0
SEQEND
  5
26C70
  8
0
  6
BYBLOCK
 62
     0
  0
LINE
  5
26A77
  8
0
  6
BYBLOCK
 62
     0
 10
47.2475431307773022
 20
65.4325332283588921
 30
0.0
 11
47.2475431307773022
 21
65.6325332283588949
 31
0.0
  0
TEXT
  5
26A78
  8
寸法
 62
     2
 10
46.6225431307773093
 20
66.8825332283588665
 30
0.0
 40
1.8
  1
60
 50
90.0
  0
POLYLINE
  5
26A79
  8
0
  6
BYBLOCK
 62
     0
 66
     1
 10
0.0
 20
0.0
 30
0.0
 70
     1
 40
0.2000000000000001
 41
0.2000000000000001
  0
VERTEX
  5
26C71
  8
0
  6
BYBLOCK
 62
     0
 10
47.2475431307773022
 20
65.1325332283588949
 30
0.0
 42
1.0
  0
VERTEX
  5
26C72
  8
0
  6
BYBLOCK
 62
     0
 10
47.2475431307773022
 20
65.3325332283588835
 30
0.0
 42
1.0
  0
SEQEND
  5
26C73
  8
0
  6
BYBLOCK
 62
     0
  0
LINE
  5
26A7A
  8
0
  6
BYBLOCK
 62
     0
 10
47.2475431307773022
 20
65.0325332283588864
 30
0.0
 11
47.2475431307773022
 21
64.8325332283588835
 31
0.0
  0
POLYLINE
  5
26A7B
  8
0
  6
BYBLOCK
 62
     0
 66
     1
 10
0.0
 20
0.0
 30
0.0
 70
     1
 40
0.2
 41
0.2
  0
VERTEX
  5
26C74
  8
0
  6
BYBLOCK
 62
     0
 10
47.2475431307773022
 20
63.1325332283588807
 30
0.0
 42
1.0
  0
VERTEX
  5
26C75
  8
0
  6
BYBLOCK
 62
     0
 10
47.2475431307773022
 20
62.9325332283588708
 30
0.0
 42
1.0
  0
SEQEND
  5
26C76
  8
0
  6
BYBLOCK
 62
     0
  0
LINE
  5
26A7C
  8
0
  6
BYBLOCK
 62
     0
 10
47.2475431307773022
 20
63.2325332283588821
 30
0.0
 11
47.2475431307773022
 21
63.4325332283588779
 31
0.0
  0
TEXT
  5
26A7D
  8
寸法
 62
     2
 10
46.6225431307773093
 20
62.6325332283588523
 30
0.0
 40
1.8
  1
22
 50
90.0
  0
POLYLINE
  5
26A7E
  8
0
  6
BYBLOCK
 62
     0
 66
     1
 10
0.0
 20
0.0
 30
0.0
 70
     1
 40
0.2000000000000001
 41
0.2000000000000001
  0
VERTEX
  5
26C77
  8
0
  6
BYBLOCK
 62
     0
 10
47.2475431307773377
 20
62.9325332283588565
 30
0.0
 42
1.0
  0
VERTEX
  5
26C78
  8
0
  6
BYBLOCK
 62
     0
 10
47.2475431307773377
 20
63.1325332283588594
 30
0.0
 42
1.0
  0
SEQEND
  5
26C79
  8
0
  6
BYBLOCK
 62
     0
  0
LINE
  5
26A7F
  8
0
  6
BYBLOCK
 62
     0
 10
47.2475431307773377
 20
62.8325332283588622
 30
0.0
 11
47.2475431307773377
 21
62.6325332283588594
 31
0.0
  0
POLYLINE
  5
26A80
  8
0
  6
BYBLOCK
 62
     0
 66
     1
 10
0.0
 20
0.0
 30
0.0
 70
     1
 40
0.2
 41
0.2
  0
VERTEX
  5
26C7A
  8
0
  6
BYBLOCK
 62
     0
 10
47.2475431307773377
 20
57.1325332283588523
 30
0.0
 42
1.0
  0
VERTEX
  5
26C7B
  8
0
  6
BYBLOCK
 62
     0
 10
47.2475431307773377
 20
56.9325332283588565
 30
0.0
 42
1.0
  0
SEQEND
  5
26C7C
  8
0
  6
BYBLOCK
 62
     0
  0
LINE
  5
26A81
  8
0
  6
BYBLOCK
 62
     0
 10
47.2475431307773377
 20
57.2325332283588608
 30
0.0
 11
47.2475431307773377
 21
57.4325332283588565
 31
0.0
  0
TEXT
  5
26A82
  8
寸法
 62
     2
 10
46.622543130777359
 20
58.6825332283588281
 30
0.0
 40
1.8
  1
60
 50
90.0
  0
POLYLINE
  5
26A83
  8
0
  6
BYBLOCK
 62
     0
 66
     1
 10
0.0
 20
0.0
 30
0.0
 70
     1
 40
0.3999999999999999
 41
0.3999999999999999
  0
VERTEX
  5
26C7D
  8
0
  6
BYBLOCK
 62
     0
 10
77.6159171493672346
 20
111.667051887396596
 30
0.0
 42
1.0
  0
VERTEX
  5
26C7E
  8
0
  6
BYBLOCK
 62
     0
 10
77.3466322144341376
 20
111.3712721994225063
 30
0.0
 42
1.0
  0
SEQEND
  5
26C7F
  8
0
  6
BYBLOCK
 62
     0
  0
LINE
  5
26A84
  8
0
  6
BYBLOCK
 62
     0
 10
77.7505596168337689
 20
111.8149417313836977
 30
0.0
 11
78.0198445517668659
 21
112.1107214193579011
 31
0.0
  0
LINE
  5
26A85
  8
注釈
 10
78.0198445517668659
 20
112.1107214193579011
 30
0.0
 11
84.7612299470456492
 21
119.5153869244091993
 31
0.0
1001
ACAD
1000
DSTYLE
1002
{
1070
   147
1040
0.09
1070
    41
1040
0.8
1070
    42
1040
2.0
1070
    43
1040
0.35
1070
    44
1040
0.0
1070
    73
1070
     0
1070
    74
1070
     0
1070
    77
1070
     0
1070
    78
1070
     8
1070
   140
1040
2.399999999999999
1070
   144
1040
2.0
1070
   176
1070
     2
1070
   177
1070
     2
1070
   178
1070
     2
1070
   271
1070
     1
1070
   272
1070
     1
1070
   340
1005
2278D
1070
   341
1005
36B9
1070
   342
1005
36B9
1070
   371
1070
    -1
1070
   372
1070
    -1
1002
}
  0
POLYLINE
  5
26A86
  8
0
  6
BYBLOCK
 62
     0
 66
     1
 10
0.0
 20
0.0
 30
0.0
 70
     1
 40
0.2000000000000001
 41
0.2000000000000001
  0
VERTEX
  5
26C80
  8
0
  6
BYBLOCK
 62
     0
 10
40.3392340026662524
 20
113.1325332283588949
 30
0.0
 42
1.0
  0
VERTEX
  5
26C81
  8
0
  6
BYBLOCK
 62
     0
 10
40.3392340026662524
 20
113.3325332283588978
 30
0.0
 42
1.0
  0
SEQEND
  5
26C82
  8
0
  6
BYBLOCK
 62
     0
  0
LINE
  5
26A87
  8
0
  6
BYBLOCK
 62
     0
 10
40.3392340026662524
 20
113.0325332283589006
 30
0.0
 11
40.3392340026662524
 21
112.8325332283588978
 31
0.0
  0
POLYLINE
  5
26A88
  8
0
  6
BYBLOCK
 62
     0
 66
     1
 10
0.0
 20
0.0
 30
0.0
 70
     1
 40
0.2
 41
0.2
  0
VERTEX
  5
26C83
  8
0
  6
BYBLOCK
 62
     0
 10
40.3392340026662666
 20
53.3325332283589404
 30
0.0
 42
1.0
  0
VERTEX
  5
26C84
  8
0
  6
BYBLOCK
 62
     0
 10
40.3392340026662666
 20
53.1325332283589375
 30
0.0
 42
1.0
  0
SEQEND
  5
26C85
  8
0
  6
BYBLOCK
 62
     0
  0
LINE
  5
26A89
  8
0
  6
BYBLOCK
 62
     0
 10
40.3392340026662666
 20
53.4325332283589418
 30
0.0
 11
40.3392340026662666
 21
53.6325332283589375
 31
0.0
  0
TEXT
  5
26A8A
  8
寸法
 62
     2
 10
39.7142340026662808
 20
80.4325332283589347
 30
0.0
 40
2.399999999999999
  1
600
 50
90.0
  0
VIEWPORT
  5
1530
 67
     1
  8
0
 10
376.8569819959158735
 20
160.4357039523146113
 30
0.0
 40
842.0588866235156047
 41
329.8468737848800174
 68
     1
 69
     1
1001
ACAD
1000
MVIEW
1002
{
1070
    16
1010
0.0
1020
0.0
1030
0.0
1010
0.0
1020
0.0
1030
1.0
1040
0.0
1040
329.8468737848800174
1040
376.8569819959158735
1040
160.4357039523146113
1040
50.0
1040
0.0
1040
0.0
1070
     0
1070
  1000
1070
     1
1070
     1
1070
     0
1070
     0
1070
     0
1070
     0
1040
0.0
1040
0.0
1040
0.0
1040
10.0
1040
10.0
1040
10.0
1040
10.0
1070
     0
1002
{
1002
}
1002
}
  0
VIEWPORT
  5
1534
 67
     1
  8
図面枠
 10
145.3515106439589886
 20
101.8539978265762045
 30
0.0
 40
232.5624170303345011
 41
162.9663965225219044
 68
     2
 69
     2
1001
ACAD
1000
MVIEW
1002
{
1070
    16
1010
0.0
1020
0.0
1030
0.0
1010
0.0
1020
0.0
1030
1.0
1040
0.0
1040
213.3070865940744056
1040
148.5000001208285028
1040
105.0000000098935971
1040
50.0
1040
0.0
1040
0.0
1070
     0
1070
  1000
1070
     1
1070
     3
1070
     0
1070
     0
1070
     0
1070
     0
1040
0.0
1040
0.0
1040
0.0
1040
10.0
1040
10.0
1040
10.0
1040
10.0
1070
     0
1002
{
1002
}
1002
}
  0
ENDSEC
  0
EOF
