  0
SECTION
  2
HEADER
  9
$ACADVER
  1
AC1009
  9
$INSBASE
 10
0.0
 20
0.0
 30
0.0
  9
$EXTMIN
 10
14.7987364521840092
 20
15.3301369511121806
 30
0.0
  9
$EXTMAX
 10
295.0231546004712868
 20
207.1473585869507872
 30
0.0
  9
$LIMMIN
 10
0.0
 20
0.0
  9
$LIMMAX
 10
297.0
 20
210.0
  9
$ORTHOMODE
 70
     0
  9
$REGENMODE
 70
     1
  9
$FILLMODE
 70
     1
  9
$QTEXTMODE
 70
     0
  9
$MIRRTEXT
 70
     1
  9
$DRAGMODE
 70
     2
  9
$LTSCALE
 40
1.0
  9
$OSMODE
 70
  4095
  9
$ATTMODE
 70
     1
  9
$TEXTSIZE
 40
2.5
  9
$TRACEWID
 40
1.0
  9
$TEXTSTYLE
  7
STANDARD
  9
$CLAYER
  8
寸法
  9
$CELTYPE
  6
BYLAYER
  9
$CECOLOR
 62
   256
  9
$DIMSCALE
 40
1.0
  9
$DIMASZ
 40
1.0
  9
$DIMEXO
 40
2.0
  9
$DIMDLI
 40
8.0
  9
$DIMRND
 40
0.0
  9
$DIMDLE
 40
0.0
  9
$DIMEXE
 40
0.0
  9
$DIMTP
 40
0.0
  9
$DIMTM
 40
0.0
  9
$DIMTXT
 40
3.0
  9
$DIMCEN
 40
2.5
  9
$DIMTSZ
 40
0.0
  9
$DIMTOL
 70
     0
  9
$DIMLIM
 70
     0
  9
$DIMTIH
 70
     0
  9
$DIMTOH
 70
     0
  9
$DIMSE1
 70
     0
  9
$DIMSE2
 70
     0
  9
$DIMTAD
 70
     2
  9
$DIMZIN
 70
     8
  9
$DIMBLK
  1
DOTSMALL
  9
$DIMASO
 70
     1
  9
$DIMSHO
 70
     1
  9
$DIMPOST
  1

  9
$DIMAPOST
  1

  9
$DIMALT
 70
     0
  9
$DIMALTD
 70
     3
  9
$DIMALTF
 40
0.03937007874016
  9
$DIMLFAC
 40
1.0
  9
$DIMTOFL
 70
     1
  9
$DIMTVP
 40
0.0
  9
$DIMTIX
 70
     0
  9
$DIMSOXD
 70
     0
  9
$DIMSAH
 70
     0
  9
$DIMBLK1
  1

  9
$DIMBLK2
  1

  9
$DIMSTYLE
  2
STANDARD
  9
$DIMCLRD
 70
   256
  9
$DIMCLRE
 70
   256
  9
$DIMCLRT
 70
   256
  9
$DIMTFAC
 40
1.0
  9
$DIMGAP
 40
0.625
  9
$LUNITS
 70
     2
  9
$LUPREC
 70
     2
  9
$SKETCHINC
 40
1.0
  9
$FILLETRAD
 40
0.0
  9
$AUNITS
 70
     0
  9
$AUPREC
 70
     1
  9
$MENU
  1
.
  9
$ELEVATION
 40
0.0
  9
$PELEVATION
 40
0.0
  9
$THICKNESS
 40
0.0
  9
$LIMCHECK
 70
     0
  9
$BLIPMODE
 70
     0
  9
$CHAMFERA
 40
10.0
  9
$CHAMFERB
 40
10.0
  9
$SKPOLY
 70
     0
  9
$TDCREATE
 40
2452318.6191435190849006
  9
$TDUPDATE
 40
2460476.7025231481529772
  9
$TDINDWG
 40
8.5089867476999999
  9
$TDUSRTIMER
 40
8.5089866318999992
  9
$USRTIMER
 70
     1
  9
$ANGBASE
 50
0.0
  9
$ANGDIR
 70
     0
  9
$PDMODE
 70
     3
  9
$PDSIZE
 40
0.0
  9
$PLINEWID
 40
0.0
  9
$COORDS
 70
     1
  9
$SPLFRAME
 70
     0
  9
$SPLINETYPE
 70
     6
  9
$SPLINESEGS
 70
     8
  9
$ATTDIA
 70
     1
  9
$ATTREQ
 70
     1
  9
$HANDLING
 70
     1
  9
$HANDSEED
  5
28F24
  9
$SURFTAB1
 70
     6
  9
$SURFTAB2
 70
     6
  9
$SURFTYPE
 70
     6
  9
$SURFU
 70
     6
  9
$SURFV
 70
     6
  9
$UCSNAME
  2

  9
$UCSORG
 10
0.0
 20
0.0
 30
0.0
  9
$UCSXDIR
 10
1.0
 20
0.0
 30
0.0
  9
$UCSYDIR
 10
0.0
 20
1.0
 30
0.0
  9
$PUCSNAME
  2

  9
$PUCSORG
 10
0.0
 20
0.0
 30
0.0
  9
$PUCSXDIR
 10
1.0
 20
0.0
 30
0.0
  9
$PUCSYDIR
 10
0.0
 20
1.0
 30
0.0
  9
$USERI1
 70
     0
  9
$USERI2
 70
     0
  9
$USERI3
 70
     0
  9
$USERI4
 70
     0
  9
$USERI5
 70
     0
  9
$USERR1
 40
0.0
  9
$USERR2
 40
0.0
  9
$USERR3
 40
0.0
  9
$USERR4
 40
0.0
  9
$USERR5
 40
0.0
  9
$WORLDVIEW
 70
     1
  9
$SHADEDGE
 70
     3
  9
$SHADEDIF
 70
    70
  9
$TILEMODE
 70
     1
  9
$MAXACTVP
 70
    64
  9
$PLIMCHECK
 70
     0
  9
$PEXTMIN
 10
29.07030212879177
 20
20.3707995653152416
 30
0.0
  9
$PEXTMAX
 10
261.6327191591262817
 20
183.3371960878370999
 30
0.0
  9
$PLIMMIN
 10
-0.79376220703125
 20
-0.793749988079071
  9
$PLIMMAX
 10
296.2062377929686932
 20
209.2062500119209005
  9
$UNITMODE
 70
     0
  9
$VISRETAIN
 70
     1
  9
$PLINEGEN
 70
     0
  9
$PSLTSCALE
 70
     1
  0
ENDSEC
  0
SECTION
  2
TABLES
  0
TABLE
  2
VPORT
 70
     1
  0
VPORT
  2
*ACTIVE
 70
     0
 10
0.0
 20
0.0
 11
1.0
 21
1.0
 12
200.6229164386890886
 22
109.4154696734276939
 13
0.0
 23
0.0
 14
10.0
 24
10.0
 15
10.0
 25
10.0
 16
0.0
 26
0.0
 36
1.0
 17
0.0
 27
0.0
 37
0.0
 40
491.1394631553712884
 41
2.01231527093596
 42
50.0
 43
0.0
 44
0.0
 50
0.0
 51
0.0
 71
     0
 72
  1000
 73
     1
 74
     3
 75
     0
 76
     0
 77
     0
 78
     0
  0
ENDTAB
  0
TABLE
  2
LTYPE
 70
     2
  0
LTYPE
  2
CONTINUOUS
 70
     0
  3
Solid line
 72
    65
 73
     0
 40
0.0
  0
LTYPE
  2
PHANTOMX2
 70
     0
  3
Phantom (2x) ____________    ____    ____   _
 72
    65
 73
     6
 40
127.0
 49
63.5
 49
-12.6999999999999993
 49
12.6999999999999993
 49
-12.6999999999999993
 49
12.6999999999999993
 49
-12.6999999999999993
  0
ENDTAB
  0
TABLE
  2
LAYER
 70
    25
  0
LAYER
  2
0
 70
     0
 62
     7
  6
CONTINUOUS
  0
LAYER
  2
図面枠
 70
     0
 62
     7
  6
CONTINUOUS
  0
LAYER
  2
テキスト
 70
     0
 62
     3
  6
CONTINUOUS
  0
LAYER
  2
DEFPOINTS
 70
     0
 62
     7
  6
PHANTOMX2
  0
LAYER
  2
枠ライン
 70
     0
 62
     1
  6
CONTINUOUS
  0
LAYER
  2
枠文字
 70
     0
 62
     4
  6
CONTINUOUS
  0
LAYER
  2
注釈
 70
     0
 62
     2
  6
CONTINUOUS
  0
LAYER
  2
枠横ライン
 70
     0
 62
     9
  6
CONTINUOUS
  0
LAYER
  2
寸法
 70
     0
 62
     2
  6
CONTINUOUS
  0
LAYER
  2
シンボル
 70
     0
 62
     3
  6
CONTINUOUS
  0
LAYER
  2
表題欄
 70
     0
 62
     4
  6
CONTINUOUS
  0
LAYER
  2
PL2
 70
     0
 62
     2
  6
CONTINUOUS
  0
LAYER
  2
PL1
 70
     0
 62
     7
  6
CONTINUOUS
  0
LAYER
  2
ビス
 70
     0
 62
     5
  6
CONTINUOUS
  0
LAYER
  2
図面枠2
 70
     0
 62
   251
  6
CONTINUOUS
  0
LAYER
  2
PL3
 70
     0
 62
     3
  6
CONTINUOUS
  0
LAYER
  2
PL6
 70
     0
 62
     1
  6
CONTINUOUS
  0
LAYER
  2
PL9
 70
     0
 62
    30
  6
CONTINUOUS
  0
LAYER
  2
壁
 70
     0
 62
     6
  6
CONTINUOUS
  0
LAYER
  2
本体1
 70
     0
 62
     7
  6
CONTINUOUS
  0
LAYER
  2
本体2
 70
     0
 62
    11
  6
CONTINUOUS
  0
LAYER
  2
PL4
 70
     0
 62
    40
  6
CONTINUOUS
  0
LAYER
  2
LAYER_1
 70
     0
 62
     7
  6
CONTINUOUS
  0
LAYER
  2
ビス類
 70
     0
 62
     3
  6
CONTINUOUS
  0
LAYER
  2
PL11
 70
     0
 62
    11
  6
CONTINUOUS
  0
ENDTAB
  0
TABLE
  2
STYLE
 70
     3
  0
STYLE
  2
STANDARD
 70
     0
 40
0.0
 41
1.0
 50
0.0
 71
     0
 42
2.5
  3
txt.shx
  4
extfont.shx
  0
STYLE
  2
游明朝
 70
     0
 40
0.0
 41
1.0
 50
0.0
 71
     0
 42
2.5
  3
txt
  4

  0
STYLE
  2
角ゴ
 70
     0
 40
0.0
 41
1.0
 50
0.0
 71
     0
 42
2.5
  3
txt.shx
  4
extfont.shx
  0
ENDTAB
  0
TABLE
  2
VIEW
 70
     0
  0
ENDTAB
  0
TABLE
  2
UCS
 70
     0
  0
ENDTAB
  0
TABLE
  2
APPID
 70
    24
  0
APPID
  2
ACAD
 70
     0
  0
APPID
  2
ACAD_PSEXT
 70
     0
  0
APPID
  2
ACAD_DSTYLE_DIMJOGGED_JOGA
 70
     0
  0
APPID
  2
ACAD_MLEADERVER
 70
     0
  0
APPID
  2
ACAD_DSTYLE_DIMJAG
 70
     0
  0
APPID
  2
ACAD_DSTYLE_DIMBREAK
 70
     0
  0
APPID
  2
ACAD_DSTYLE_DIMTALN
 70
     0
  0
APPID
  2
ACAD_EXEMPT_FROM_CAD_STANDARDS
 70
     0
  0
APPID
  2
ACAD_DSTYLE_DIM_LINETYPE
 70
     0
  0
APPID
  2
ACAD_DSTYLE_DIM_EXT1_LINETYPE
 70
     0
  0
APPID
  2
ACAD_DSTYLE_DIM_EXT2_LINETYPE
 70
     0
  0
APPID
  2
ACAECLAYERSTANDARD
 70
     0
  0
APPID
  2
ACADANNOTATIVE
 70
     0
  0
APPID
  2
ACAD_DSTYLE_DIMRADIAL_EXTENSION
 70
     0
  0
APPID
  2
ACAD_DSTYLE_DIMTEXT_FILL
 70
     0
  0
APPID
  2
ACAD_DSTYLE_DIMEXT_LENGTH
 70
     0
  0
APPID
  2
ACAD_DSTYLE_DIMEXT_ENABLED
 70
     0
  0
APPID
  2
ACAD_DSTYLE_DIMARC_LENGTH_
 70
     0
  0
APPID
  2
ACAD_NAV_VCDISPLAY
 70
     0
  0
APPID
  2
GENIUS_GENODEF_13
 70
     0
  0
APPID
  2
GENIUS_GENOBJ-N-FIL_13
 70
     0
  0
APPID
  2
ACCMTRANSPARENCY
 70
     0
  0
APPID
  2
ACADANNOMONITORALERTICONDI
 70
     0
  0
APPID
  2
ACAD_TC
 70
     0
  0
ENDTAB
  0
TABLE
  2
DIMSTYLE
 70
     2
  0
DIMSTYLE
  2
STANDARD
 70
     0
  3

  4

  5
DOTSMALL
  6

  7

 40
1.0
 41
1.0
 42
2.0
 43
8.0
 44
0.0
 45
0.0
 46
0.0
 47
0.0
 48
0.0
140
3.0
141
2.5
142
0.0
143
0.03937007874016
144
1.0
145
0.0
146
1.0
147
0.625
 71
     0
 72
     0
 73
     0
 74
     0
 75
     0
 76
     0
 77
     2
 78
     8
170
     0
171
     3
172
     1
173
     0
174
     0
175
     0
176
   256
177
   256
178
   256
  0
DIMSTYLE
  2
STANDARD$0
 70
     0
  3

  4

  5

  6
DOT
  7
DOT
 40
1.0
 41
0.4
 42
2.0
 43
3.75
 44
0.0
 45
0.0
 46
0.0
 47
0.0
 48
0.0
140
2.399999999999999
141
2.5
142
0.0
143
0.03937
144
1.0
145
0.0
146
1.0
147
0.625
 71
     0
 72
     0
 73
     0
 74
     0
 75
     0
 76
     0
 77
     2
 78
     0
170
     0
171
     2
172
     0
173
     1
174
     0
175
     0
176
     2
177
     2
178
     2
  0
ENDTAB
  0
ENDSEC
  0
SECTION
  2
BLOCKS
  0
BLOCK
  8
0
  2
$MODEL_SPACE
 70
     0
 10
0.0
 20
0.0
 30
0.0
  3
$MODEL_SPACE
  1

  0
ENDBLK
  5
21
  8
0
  0
BLOCK
 67
     1
  8
0
  2
$PAPER_SPACE
 70
     0
 10
0.0
 20
0.0
 30
0.0
  3
$PAPER_SPACE
  1

  0
ENDBLK
  5
1FE
 67
     1
  8
0
  0
BLOCK
  8
0
  2
_OPEN
 70
     0
 10
0.0
 20
0.0
 30
0.0
  3
_OPEN
  1

  0
LINE
  5
5A2
  8
0
  6
BYBLOCK
 62
     0
 10
-1.0
 20
0.1666666666666666
 30
0.0
 11
0.0
 21
0.0
 31
0.0
  0
LINE
  5
5A3
  8
0
  6
BYBLOCK
 62
     0
 10
-1.0
 20
-0.1666666666666666
 30
0.0
 11
0.0
 21
0.0
 31
0.0
  0
LINE
  5
5A4
  8
0
  6
BYBLOCK
 62
     0
 10
0.0
 20
0.0
 30
0.0
 11
-1.0
 21
0.0
 31
0.0
  0
ENDBLK
  5
5A6
  8
0
  0
BLOCK
  8
0
  2
_DOT
 70
     0
 10
0.0
 20
0.0
 30
0.0
  3
_DOT
  1

  0
POLYLINE
  5
36BA
  8
0
  6
BYBLOCK
 62
     0
 66
     1
 10
0.0
 20
0.0
 30
0.0
 70
     1
 40
0.5
 41
0.5
  0
VERTEX
  5
28D5F
  8
0
  6
BYBLOCK
 62
     0
 10
-0.25
 20
0.0
 30
0.0
 42
1.0
  0
VERTEX
  5
28D60
  8
0
  6
BYBLOCK
 62
     0
 10
0.25
 20
0.0
 30
0.0
 42
1.0
  0
SEQEND
  5
28D61
  8
0
  6
BYBLOCK
 62
     0
  0
LINE
  5
36BB
  8
0
  6
BYBLOCK
 62
     0
 10
-0.5
 20
0.0
 30
0.0
 11
-1.0
 21
0.0
 31
0.0
  0
ENDBLK
  5
36BD
  8
0
  0
BLOCK
  8
0
  2
_DOTSMALL
 70
     0
 10
0.0
 20
0.0
 30
0.0
  3
_DOTSMALL
  1

  0
POLYLINE
  5
2262B
  8
0
  6
BYBLOCK
 62
     0
 66
     1
 10
0.0
 20
0.0
 30
0.0
 70
     1
 40
0.5
 41
0.5
  0
VERTEX
  5
28D7E
  8
0
  6
BYBLOCK
 62
     0
 10
-0.0625
 20
0.0
 30
0.0
 42
1.0
  0
VERTEX
  5
28D7F
  8
0
  6
BYBLOCK
 62
     0
 10
0.0625
 20
0.0
 30
0.0
 42
1.0
  0
SEQEND
  5
28D80
  8
0
  6
BYBLOCK
 62
     0
  0
ENDBLK
  5
2262D
  8
0
  0
BLOCK
  8
0
  2
A$C2A1B03D1
 70
     0
 10
0.0
 20
0.0
 30
0.0
  3
A$C2A1B03D1
  1

  0
LINE
  5
22A25
  8
本体2
 10
0.0
 20
0.0
 30
0.0
 11
0.0
 21
7.5
 31
0.0
  0
LINE
  5
22A26
  8
本体2
 10
-0.5999999999999659
 20
0.5999999999999659
 30
0.0
 11
-0.5999999999999091
 21
6.9000000000000039
 31
0.0
  0
LINE
  5
22A27
  8
本体2
 10
-0.5999999999999659
 20
0.5999999999999659
 30
0.0
 11
-3.0399999999999059
 21
0.5999999999999659
 31
0.0
  0
ARC
  5
22A28
  8
本体2
 10
-3.0399999999999059
 20
0.5399999999999637
 30
0.0
 40
0.06
 50
90.0
 51
180.0000000000048885
  0
LINE
  5
22A29
  8
本体2
 10
0.0
 20
0.0
 30
0.0
 11
-2.099999999999965
 21
0.0
 31
0.0
  0
LINE
  5
22A2A
  8
本体2
 10
-3.0999999999999082
 20
0.5399999999999637
 30
0.0
 11
-3.0999999999999082
 21
0.0
 31
0.0
  0
ARC
  5
22A2B
  8
本体2
 10
-2.5999999999999091
 20
0.0
 30
0.0
 40
0.4999999999999433
 50
180.0000000000057128
 51
0.0
  0
LINE
  5
22A2C
  8
本体2
 10
0.0
 20
7.5
 30
0.0
 11
-1.233974596215432
 21
7.5
 31
0.0
  0
LINE
  5
22A2D
  8
本体2
 10
-0.5999999999999091
 20
6.9000000000000039
 30
0.0
 11
-1.6399999999999291
 21
6.9000000000000039
 31
0.0
  0
ARC
  5
22A2E
  8
本体2
 10
-1.6399999999999291
 20
6.9600000000000071
 30
0.0
 40
0.06
 50
180.0
 51
270.0
  0
LINE
  5
22A2F
  8
本体2
 10
-1.69999999999993
 20
6.9600000000000071
 30
0.0
 11
-1.6999999999998729
 21
7.000000000000056
 31
0.0
  0
ARC
  5
22A30
  8
本体2
 10
-2.0999999999998509
 20
7.0000000000000133
 30
0.0
 40
0.4
 50
0.0
 51
180.0
  0
ARC
  5
22A31
  8
本体2
 10
-2.0999999999998509
 20
7.0000000000000133
 30
0.0
 40
1.0
 50
30.0000000000012506
 51
180.0
  0
LINE
  5
22A32
  8
本体2
 10
-2.499999999999829
 20
7.0000000000000133
 30
0.0
 11
-2.499999999999885
 21
6.4000000000000039
 31
0.0
  0
LINE
  5
22A33
  8
本体2
 10
-3.0999999999999082
 20
7.0000000000000133
 30
0.0
 11
-3.0999999999999082
 21
6.4000000000000039
 31
0.0
  0
ARC
  5
22A34
  8
本体2
 10
-2.7999999999998959
 20
6.4550000000001111
 30
0.0
 40
0.3050000000000304
 50
190.3888578154883078
 51
349.6111421845117206
  0
ENDBLK
  5
22A35
  8
0
  0
BLOCK
  8
0
  2
A$C4A617CED
 70
     0
 10
0.0
 20
0.0
 30
0.0
  3
A$C4A617CED
  1

  0
LINE
  5
22A38
  8
ビス類
  6
CONTINUOUS
 62
     3
 10
0.9042630175509316
 20
7.7956497501606909
 30
0.0
 11
1.8671592281284559
 21
4.9655544321773828
 31
0.0
  0
LINE
  5
22A39
  8
ビス類
  6
CONTINUOUS
 62
     3
 10
0.9042630175508747
 20
8.3394848295602628
 30
0.0
 11
2.0521907123352321
 21
4.9655544321773828
 31
0.0
  0
LINE
  5
22A3A
  8
ビス類
  6
CONTINUOUS
 62
     3
 10
0.9042630175509316
 20
9.2956497501606936
 30
0.0
 11
1.8671592281284559
 21
6.4655544321773828
 31
0.0
  0
LINE
  5
22A3B
  8
ビス類
  6
CONTINUOUS
 62
     3
 10
1.1249793749999519
 20
9.1907665949705688
 30
0.0
 11
2.0521907123352321
 21
6.4655544321773828
 31
0.0
  0
ARC
  5
22A3C
  8
ビス類
  6
CONTINUOUS
 62
     3
 10
1.358711591947211
 20
0.5800070736869998
 30
0.0
 40
1.7407710509528029
 50
269.7129073154002867
 51
340.5375047996116109
  0
LINE
  5
22A3D
  8
ビス類
  6
CONTINUOUS
 62
     3
 10
0.0
 20
0.0
 30
0.0
 11
2.1776225963762941
 21
0.0
 31
0.0
  0
LINE
  5
22A3E
  8
ビス類
  6
CONTINUOUS
 62
     3
 10
-3.0000146250000621
 20
0.0
 30
0.0
 11
3.0000146250000039
 21
0.0
 31
0.0
  0
LINE
  5
22A3F
  8
ビス類
  6
CONTINUOUS
 62
     3
 10
-0.75
 20
1.4999999999999429
 30
0.0
 11
0.75
 21
1.75
 31
0.0
  0
LINE
  5
22A40
  8
ビス類
  6
CONTINUOUS
 62
     3
 10
0.75
 20
2.89999500000016
 30
0.0
 11
0.75
 21
0.0
 31
0.0
  0
LINE
  5
22A41
  8
ビス類
  6
CONTINUOUS
 62
     3
 10
-0.75
 20
2.89999500000016
 30
0.0
 11
-0.75
 21
0.0
 31
0.0
  0
LINE
  5
22A42
  8
ビス類
  6
CONTINUOUS
 62
     3
 10
1.3499891249999789
 20
-1.1607421243325571
 30
0.0
 11
-1.3499921249999709
 21
-1.1607421243325571
 31
0.0
  0
ARC
  5
22A43
  8
ビス類
  6
CONTINUOUS
 62
     3
 10
-1.3197804204722841
 20
0.6353486811821086
 30
0.0
 40
1.796344880234549
 50
200.7131604557025071
 51
269.0363293842240751
  0
ARC
  5
22A44
  8
ビス類
  6
CONTINUOUS
 62
     3
 10
0.7500003750000133
 20
-0.7857346243325197
 30
0.0
 40
0.374999925
 50
180.0
 51
270.0
  0
ARC
  5
22A45
  8
ビス類
  6
CONTINUOUS
 62
     3
 10
-0.7499996249999868
 20
-0.7857346243325197
 30
0.0
 40
0.374999925
 50
270.0
 51
0.0
  0
LINE
  5
22A46
  8
ビス類
  6
CONTINUOUS
 62
     3
 10
-0.3749996999999894
 20
-0.7857346243325197
 30
0.0
 11
0.3750004500000159
 21
-0.7857346243325197
 31
0.0
  0
LINE
  5
22A47
  8
ビス類
  6
CONTINUOUS
 62
     3
 10
-0.75
 20
0.0
 30
0.0
 11
0.75
 21
0.25
 31
0.0
  0
LINE
  5
22A48
  8
ビス類
  6
CONTINUOUS
 62
     3
 10
-0.75
 20
0.2499999999999432
 30
0.0
 11
0.75
 21
0.5
 31
0.0
  0
LINE
  5
22A49
  8
ビス類
  6
CONTINUOUS
 62
     3
 10
-0.75
 20
0.4999999999999433
 30
0.0
 11
0.75
 21
0.75
 31
0.0
  0
LINE
  5
22A4A
  8
ビス類
  6
CONTINUOUS
 62
     3
 10
-0.75
 20
0.7499999999999432
 30
0.0
 11
0.75
 21
1.0
 31
0.0
  0
LINE
  5
22A4B
  8
ビス類
  6
CONTINUOUS
 62
     3
 10
-0.75
 20
0.999999999999943
 30
0.0
 11
0.75
 21
1.25
 31
0.0
  0
LINE
  5
22A4C
  8
ビス類
  6
CONTINUOUS
 62
     3
 10
-0.75
 20
1.249999999999942
 30
0.0
 11
0.75
 21
1.5
 31
0.0
  0
LINE
  5
22A4D
  8
ビス類
  6
CONTINUOUS
 62
     3
 10
0.9042630175509316
 20
9.2956497501606936
 30
0.0
 11
0.9042630175508747
 21
8.3394848295602628
 31
0.0
  0
LINE
  5
22A4E
  8
ビス類
  6
CONTINUOUS
 62
     3
 10
-0.9042630175509883
 20
9.2956497501606936
 30
0.0
 11
-0.9042630175509316
 21
8.3394848295603161
 31
0.0
  0
LINE
  5
22A4F
  8
ビス類
  6
CONTINUOUS
 62
     3
 10
-0.4881249991523191
 20
9.3175078496242936
 30
0.0
 11
0.2145256626359924
 21
7.5951765204557642
 31
0.0
  0
LINE
  5
22A50
  8
ビス類
  6
CONTINUOUS
 62
     3
 10
-0.3631833222509613
 20
9.3053296521151765
 30
0.0
 11
0.3371628707037644
 21
7.5886470173621774
 31
0.0
  0
LINE
  5
22A51
  8
ビス類
  6
CONTINUOUS
 62
     3
 10
-0.3631833222509613
 20
9.3053296521151765
 30
0.0
 11
0.3371628707037644
 21
7.5886470173621774
 31
0.0
  0
LINE
  5
22A52
  8
ビス類
  6
CONTINUOUS
 62
     3
 10
-0.9042630175509883
 20
9.2956497501606936
 30
0.0
 11
-1.8671592281284559
 21
6.4655544321773828
 31
0.0
  0
LINE
  5
22A53
  8
ビス類
  6
CONTINUOUS
 62
     3
 10
-1.124979375000065
 20
9.1907665949705688
 30
0.0
 11
-2.0521907123352321
 21
6.4655544321773828
 31
0.0
  0
LINE
  5
22A54
  8
ビス類
  6
CONTINUOUS
 62
     3
 10
-1.124979375000065
 20
5.4655544321773828
 30
0.0
 11
-1.124979375000065
 21
2.89999500000016
 31
0.0
  0
LINE
  5
22A55
  8
ビス類
  6
CONTINUOUS
 62
     3
 10
-0.9042630175509883
 20
7.7956497501606909
 30
0.0
 11
-1.8671592281284559
 21
4.9655544321773828
 31
0.0
  0
LINE
  5
22A56
  8
ビス類
  6
CONTINUOUS
 62
     3
 10
-0.9042630175509316
 20
8.3394848295602628
 30
0.0
 11
-2.0521907123352321
 21
4.9655544321773828
 31
0.0
  0
LINE
  5
22A57
  8
ビス類
  6
CONTINUOUS
 62
     3
 10
-0.0394415918066216
 20
6.8888980843683481
 30
0.0
 11
-0.0394415918066216
 21
5.1741175731484068
 31
0.0
  0
LINE
  5
22A58
  8
ビス類
  6
CONTINUOUS
 62
     3
 10
-0.1499968461649814
 20
6.9178764298369506
 30
0.0
 11
-0.1499968461649814
 21
5.1741175731484068
 31
0.0
  0
LINE
  5
22A59
  8
ビス類
  6
CONTINUOUS
 62
     3
 10
1.1249793749999519
 20
5.4655544321773828
 30
0.0
 11
1.1249793749999519
 21
2.89999500000016
 31
0.0
  0
LINE
  5
22A5A
  8
ビス類
  6
CONTINUOUS
 62
     3
 10
-1.124979375000065
 20
4.5340877939856341
 30
0.0
 11
-1.5007887585778681
 21
2.89999500000016
 31
0.0
  0
LINE
  5
22A5B
  8
ビス類
  6
CONTINUOUS
 62
     3
 10
-2.0521907123352321
 20
4.9655544321773828
 30
0.0
 11
-1.8671592281284559
 21
4.9655544321773828
 31
0.0
  0
LINE
  5
22A5C
  8
ビス類
  6
CONTINUOUS
 62
     3
 10
-0.0394415918066216
 20
5.1741175731484068
 30
0.0
 11
-0.1499968461649814
 21
5.1741175731484068
 31
0.0
  0
LINE
  5
22A5D
  8
ビス類
  6
CONTINUOUS
 62
     3
 10
-0.75
 20
1.7499999999999429
 30
0.0
 11
0.75
 21
2.0
 31
0.0
  0
LINE
  5
22A5E
  8
ビス類
  6
CONTINUOUS
 62
     3
 10
-0.75
 20
1.9999999999999429
 30
0.0
 11
0.75
 21
2.25
 31
0.0
  0
LINE
  5
22A5F
  8
ビス類
  6
CONTINUOUS
 62
     3
 10
-0.75
 20
2.2499999999999432
 30
0.0
 11
0.75
 21
2.5
 31
0.0
  0
LINE
  5
22A60
  8
ビス類
  6
CONTINUOUS
 62
     3
 10
-0.75
 20
2.4999999999999432
 30
0.0
 11
0.75
 21
2.75
 31
0.0
  0
LINE
  5
22A61
  8
ビス類
  6
CONTINUOUS
 62
     3
 10
-0.75
 20
2.4999999999999432
 30
0.0
 11
0.75
 21
2.75
 31
0.0
  0
LINE
  5
22A62
  8
ビス類
  6
CONTINUOUS
 62
     3
 10
-0.75
 20
2.7499999999999432
 30
0.0
 11
0.1499700000010193
 21
2.89999500000016
 31
0.0
  0
LINE
  5
22A63
  8
ビス類
  6
CONTINUOUS
 62
     3
 10
1.1249793749999519
 20
4.5340877939856341
 30
0.0
 11
1.5007887585778681
 21
2.89999500000016
 31
0.0
  0
LINE
  5
22A64
  8
ビス類
  6
CONTINUOUS
 62
     3
 10
-0.9042630175508747
 20
5.4655544321773828
 30
0.0
 11
-1.124979375000065
 21
5.4655544321773828
 31
0.0
  0
LINE
  5
22A65
  8
ビス類
  6
CONTINUOUS
 62
     3
 10
-2.0521907123352321
 20
6.4655544321773828
 30
0.0
 11
-1.8671592281284559
 21
6.4655544321773828
 31
0.0
  0
LINE
  5
22A66
  8
ビス類
  6
CONTINUOUS
 62
     3
 10
0.9042630175507612
 20
5.4655544321773828
 30
0.0
 11
1.1249793749999519
 21
5.4655544321773828
 31
0.0
  0
LINE
  5
22A67
  8
ビス類
  6
CONTINUOUS
 62
     3
 10
0.2145256626359924
 20
7.5951765204557642
 30
0.0
 11
-0.1499968461649814
 21
6.9178764298369506
 31
0.0
  0
LINE
  5
22A68
  8
ビス類
  6
CONTINUOUS
 62
     3
 10
0.3371628707037644
 20
7.5886470173621774
 30
0.0
 11
-0.0394415918066216
 21
6.8888980843683481
 31
0.0
  0
LINE
  5
22A69
  8
ビス類
  6
CONTINUOUS
 62
     3
 10
-0.9042630175508747
 20
7.7956497501608624
 30
0.0
 11
-0.9042630175508747
 21
5.4655544321773828
 31
0.0
  0
LINE
  5
22A6A
  8
ビス類
  6
CONTINUOUS
 62
     3
 10
0.9042630175508747
 20
7.7956497501608037
 30
0.0
 11
0.9042630175507612
 21
5.4655544321773828
 31
0.0
  0
LINE
  5
22A6B
  8
ビス類
  6
CONTINUOUS
 62
     3
 10
-1.124979375000065
 20
9.1907665949705688
 30
0.0
 11
-1.1249846250000239
 21
13.7319703239435302
 31
0.0
  0
LINE
  5
22A6C
  8
ビス類
  6
CONTINUOUS
 62
     3
 10
1.1249793749999519
 20
9.1907665949705688
 30
0.0
 11
1.1249793749999519
 21
13.7319703239435302
 31
0.0
  0
LINE
  5
22A6D
  8
ビス類
  6
CONTINUOUS
 62
     3
 10
0.0552750021792008
 20
14.6478268543646593
 30
0.0
 11
0.0552750021792008
 21
12.2459280865757005
 31
0.0
  0
LINE
  5
22A6E
  8
ビス類
  6
CONTINUOUS
 62
     3
 10
-0.0552802521791591
 20
14.6478268543646593
 30
0.0
 11
-0.0552802521791591
 21
12.2285971388733401
 31
0.0
  0
LINE
  5
22A6F
  8
ビス類
  6
CONTINUOUS
 62
     3
 10
0.0552750021792008
 20
12.2459280865757005
 30
0.0
 11
0.5122497926015513
 21
10.6366348687780601
 31
0.0
  0
LINE
  5
22A70
  8
ビス類
  6
CONTINUOUS
 62
     3
 10
-0.0552802521791591
 20
12.2285971388733401
 30
0.0
 11
0.39150345470415
 21
10.6551930816268001
 31
0.0
  0
LINE
  5
22A71
  8
ビス類
  6
CONTINUOUS
 62
     3
 10
0.5122497926015513
 20
10.6366348687780601
 30
0.0
 11
-0.3631833222509613
 21
9.3053296521151765
 31
0.0
  0
LINE
  5
22A72
  8
ビス類
  6
CONTINUOUS
 62
     3
 10
0.39150345470415
 20
10.6551930816268001
 30
0.0
 11
-0.4881249991523191
 21
9.3175078496242936
 31
0.0
  0
LINE
  5
22A73
  8
ビス類
  6
CONTINUOUS
 62
     3
 10
-0.2211131337166989
 20
14.6478268543646593
 30
0.0
 11
-1.1249846250000239
 21
13.7319703239435302
 31
0.0
  0
LINE
  5
22A74
  8
ビス類
  6
CONTINUOUS
 62
     3
 10
0.2211078837167406
 20
14.6478268543646593
 30
0.0
 11
1.1249793749999519
 21
13.7319703239435302
 31
0.0
  0
LINE
  5
22A75
  8
ビス類
  6
CONTINUOUS
 62
     3
 10
0.2211078837167406
 20
14.6478268543646593
 30
0.0
 11
-0.2211131337166989
 21
14.6478268543646593
 31
0.0
  0
LINE
  5
22A76
  8
ビス類
  6
CONTINUOUS
 62
     3
 10
2.0521907123352321
 20
4.9655544321773828
 30
0.0
 11
1.8671592281284559
 21
4.9655544321773828
 31
0.0
  0
LINE
  5
22A77
  8
ビス類
  6
CONTINUOUS
 62
     3
 10
2.0521907123352321
 20
6.4655544321773828
 30
0.0
 11
1.8671592281284559
 21
6.4655544321773828
 31
0.0
  0
ENDBLK
  5
22A78
  8
0
  0
BLOCK
  8
0
  2
*D6
 70
     1
 10
0.0
 20
0.0
 30
0.0
  3
*D6
  1

  0
LINE
  5
28945
  8
寸法
 62
     2
 10
31.91883748816565
 20
160.0131855930316078
 30
0.0
 11
31.91883748816565
 21
151.7027469316265922
 31
0.0
  0
LINE
  5
28946
  8
寸法
 62
     2
 10
113.3188374881665936
 20
159.9844446268787976
 30
0.0
 11
113.3188374881665936
 21
151.7027469316265922
 31
0.0
  0
LINE
  5
28947
  8
寸法
 62
     2
 10
32.7188374881656472
 20
151.7027469316265922
 30
0.0
 11
112.5188374881665965
 21
151.7027469316265922
 31
0.0
  0
INSERT
  5
28948
  8
寸法
 62
     2
  2
_DOT
 10
31.91883748816565
 20
151.7027469316265922
 30
0.0
 41
0.8
 42
0.8
 43
0.8
 50
180.0
  0
INSERT
  5
28949
  8
寸法
 62
     2
  2
_DOT
 10
113.3188374881665936
 20
151.7027469316265922
 30
0.0
 41
0.8
 42
0.8
 43
0.8
  0
INSERT
  5
2894A
  8
寸法
  2
*U81
 10
0.0
 20
0.0
 30
0.0
  0
POINT
  5
2894B
  8
DEFPOINTS
 62
     0
 10
31.91883748816565
 20
162.0131855930316078
 30
0.0
  0
POINT
  5
2894C
  8
DEFPOINTS
 62
     0
 10
113.3188374881665936
 20
161.9844446268787976
 30
0.0
  0
POINT
  5
2894D
  8
DEFPOINTS
 62
     0
 10
113.3188374881665936
 20
151.7027469316265922
 30
0.0
  0
ENDBLK
  5
24140
  8
0
  0
BLOCK
  8
0
  2
*D7
 70
     1
 10
0.0
 20
0.0
 30
0.0
  3
*D7
  1

  0
LINE
  5
28933
  8
寸法
 62
     2
 10
109.8188074881664988
 20
159.9844446268787976
 30
0.0
 11
109.8188074881664988
 21
156.084459626879692
 31
0.0
  0
LINE
  5
28934
  8
寸法
 62
     2
 10
35.4188043423206409
 20
159.9844446268787976
 30
0.0
 11
35.4188043423206409
 21
156.084459626879692
 31
0.0
  0
LINE
  5
28935
  8
寸法
 62
     2
 10
109.0188074881665017
 20
156.084459626879692
 30
0.0
 11
36.2188043423206381
 21
156.084459626879692
 31
0.0
  0
INSERT
  5
28936
  8
寸法
 62
     2
  2
_DOT
 10
109.8188074881664988
 20
156.084459626879692
 30
0.0
 41
0.8
 42
0.8
 43
0.8
  0
INSERT
  5
28937
  8
寸法
 62
     2
  2
_DOT
 10
35.4188043423206409
 20
156.084459626879692
 30
0.0
 41
0.8
 42
0.8
 43
0.8
 50
180.0
  0
INSERT
  5
28938
  8
寸法
  2
*U80
 10
0.0
 20
0.0
 30
0.0
  0
POINT
  5
28939
  8
DEFPOINTS
 62
     0
 10
109.8188074881664988
 20
161.9844446268787976
 30
0.0
  0
POINT
  5
2893A
  8
DEFPOINTS
 62
     0
 10
35.4188043423206409
 20
161.9844446268787976
 30
0.0
  0
POINT
  5
2893B
  8
DEFPOINTS
 62
     0
 10
35.4188043423206409
 20
156.084459626879692
 30
0.0
  0
ENDBLK
  5
2414C
  8
0
  0
BLOCK
  8
0
  2
*D8
 70
     1
 10
0.0
 20
0.0
 30
0.0
  3
*D8
  1

  0
LINE
  5
2888E
  8
寸法
 62
     2
 10
35.4188043423206409
 20
159.9844446268787976
 30
0.0
 11
35.4188043423206409
 21
156.084459626879692
 31
0.0
  0
LINE
  5
2888F
  8
寸法
 62
     2
 10
31.91883748816565
 20
160.0131855930316078
 30
0.0
 11
31.91883748816565
 21
156.084459626879692
 31
0.0
  0
LINE
  5
28890
  8
寸法
 62
     2
 10
34.6188043423206366
 20
156.084459626879692
 30
0.0
 11
32.7188374881656472
 21
156.084459626879692
 31
0.0
  0
INSERT
  5
28891
  8
寸法
 62
     2
  2
_DOT
 10
35.4188043423206409
 20
156.084459626879692
 30
0.0
 41
0.8
 42
0.8
 43
0.8
  0
INSERT
  5
28892
  8
寸法
 62
     2
  2
_DOT
 10
31.91883748816565
 20
156.084459626879692
 30
0.0
 41
0.8
 42
0.8
 43
0.8
 50
180.0
  0
INSERT
  5
28893
  8
寸法
  2
*U77
 10
0.0
 20
0.0
 30
0.0
  0
POINT
  5
28894
  8
DEFPOINTS
 62
     0
 10
35.4188043423206409
 20
161.9844446268787976
 30
0.0
  0
POINT
  5
28895
  8
DEFPOINTS
 62
     0
 10
31.91883748816565
 20
162.0131855930316078
 30
0.0
  0
POINT
  5
28896
  8
DEFPOINTS
 62
     0
 10
31.91883748816565
 20
156.084459626879692
 30
0.0
  0
ENDBLK
  5
24158
  8
0
  0
BLOCK
  8
0
  2
*D9
 70
     1
 10
0.0
 20
0.0
 30
0.0
  3
*D9
  1

  0
LINE
  5
28897
  8
寸法
 62
     2
 10
29.9188374881656713
 20
169.5131355930317909
 30
0.0
 11
24.91883748817175
 21
169.5131355930317909
 31
0.0
  0
LINE
  5
28898
  8
寸法
 62
     2
 10
29.9188374881656713
 20
162.0131855930316931
 30
0.0
 11
24.91883748817175
 21
162.0131855930316931
 31
0.0
  0
LINE
  5
28899
  8
寸法
 62
     2
 10
24.91883748817175
 20
168.713135593031808
 30
0.0
 11
24.91883748817175
 21
162.8131855930317045
 31
0.0
  0
INSERT
  5
2889A
  8
寸法
 62
     2
  2
_DOT
 10
24.91883748817175
 20
169.5131355930317909
 30
0.0
 41
0.8
 42
0.8
 43
0.8
 50
90.0
  0
INSERT
  5
2889B
  8
寸法
 62
     2
  2
_DOT
 10
24.91883748817175
 20
162.0131855930316931
 30
0.0
 41
0.8
 42
0.8
 43
0.8
 50
270.0
  0
INSERT
  5
2889C
  8
寸法
  2
*U78
 10
0.0
 20
0.0
 30
0.0
  0
POINT
  5
2889D
  8
DEFPOINTS
 62
     0
 10
31.9188374881656713
 20
169.5131355930317909
 30
0.0
  0
POINT
  5
2889E
  8
DEFPOINTS
 62
     0
 10
31.9188374881656713
 20
162.0131855930316931
 30
0.0
  0
POINT
  5
2889F
  8
DEFPOINTS
 62
     0
 10
24.91883748817175
 20
162.0131855930316931
 30
0.0
  0
ENDBLK
  5
24164
  8
0
  0
BLOCK
  8
0
  2
*D10
 70
     1
 10
0.0
 20
0.0
 30
0.0
  3
*D10
  1

  0
LINE
  5
288A0
  8
寸法
 62
     2
 10
113.3188374881665936
 20
159.9844446268787976
 30
0.0
 11
113.3188374881665936
 21
156.084459626879692
 31
0.0
  0
LINE
  5
288A1
  8
寸法
 62
     2
 10
109.8188074881664988
 20
159.9844446268787976
 30
0.0
 11
109.8188074881664988
 21
156.084459626879692
 31
0.0
  0
LINE
  5
288A2
  8
寸法
 62
     2
 10
112.5188374881665965
 20
156.084459626879692
 30
0.0
 11
110.618807488166496
 21
156.084459626879692
 31
0.0
  0
INSERT
  5
288A3
  8
寸法
 62
     2
  2
_DOT
 10
113.3188374881665936
 20
156.084459626879692
 30
0.0
 41
0.8
 42
0.8
 43
0.8
  0
INSERT
  5
288A4
  8
寸法
 62
     2
  2
_DOT
 10
109.8188074881664988
 20
156.084459626879692
 30
0.0
 41
0.8
 42
0.8
 43
0.8
 50
180.0
  0
INSERT
  5
288A5
  8
寸法
  2
*U79
 10
0.0
 20
0.0
 30
0.0
  0
POINT
  5
288A6
  8
DEFPOINTS
 62
     0
 10
113.3188374881665936
 20
161.9844446268787976
 30
0.0
  0
POINT
  5
288A7
  8
DEFPOINTS
 62
     0
 10
109.8188074881664988
 20
161.9844446268787976
 30
0.0
  0
POINT
  5
288A8
  8
DEFPOINTS
 62
     0
 10
109.8188074881664988
 20
156.084459626879692
 30
0.0
  0
ENDBLK
  5
24170
  8
0
  0
BLOCK
  8
0
  2
*D11
 70
     1
 10
0.0
 20
0.0
 30
0.0
  3
*D11
  1

  0
LINE
  5
2874E
  8
寸法
 62
     2
 10
49.2851498580700991
 20
108.0789465900679005
 30
0.0
 11
45.7621347283867692
 21
108.0789465900679005
 31
0.0
  0
LINE
  5
2874F
  8
寸法
 62
     2
 10
49.2851498580700991
 20
96.0789465900679147
 30
0.0
 11
45.7621347283867692
 21
96.0789465900679147
 31
0.0
  0
LINE
  5
28750
  8
寸法
 62
     2
 10
45.7621347283867692
 20
107.6789465900678948
 30
0.0
 11
45.7621347283867692
 21
96.4789465900679346
 31
0.0
  0
INSERT
  5
28751
  8
寸法
 62
     2
  2
_DOT
 10
45.7621347283867692
 20
108.0789465900679005
 30
0.0
 41
0.4
 42
0.4
 43
0.4
 50
90.0
  0
INSERT
  5
28752
  8
寸法
 62
     2
  2
_DOT
 10
45.7621347283867692
 20
96.0789465900679147
 30
0.0
 41
0.4
 42
0.4
 43
0.4
 50
270.0
  0
INSERT
  5
28753
  8
寸法
  2
*U44
 10
0.0
 20
0.0
 30
0.0
  0
POINT
  5
28754
  8
DEFPOINTS
 62
     0
 10
51.2851498580701133
 20
108.0789465900679005
 30
0.0
  0
POINT
  5
28755
  8
DEFPOINTS
 62
     0
 10
51.2851498580701133
 20
96.0789465900679147
 30
0.0
  0
POINT
  5
28756
  8
DEFPOINTS
 62
     0
 10
45.7621347283867692
 20
96.0789465900679147
 30
0.0
  0
ENDBLK
  5
24E99
  8
0
  0
BLOCK
  8
0
  2
*D12
 70
     1
 10
0.0
 20
0.0
 30
0.0
  3
*D12
  1

  0
LINE
  5
28757
  8
寸法
 62
     2
 10
49.2851498580700991
 20
96.0789465900679147
 30
0.0
 11
45.6783771147763389
 21
96.0789465900679147
 31
0.0
  0
LINE
  5
28758
  8
寸法
 62
     2
 10
49.2851498580700991
 20
95.8789465900679545
 30
0.0
 11
45.6783771147763389
 21
95.8789465900679545
 31
0.0
  0
LINE
  5
28759
  8
寸法
 62
     2
 10
45.6783771147763389
 20
96.4789465900679346
 30
0.0
 11
45.6783771147763389
 21
96.8789465900679261
 31
0.0
  0
LINE
  5
2875A
  8
寸法
 62
     2
 10
45.6783771147763389
 20
95.4789465900679488
 30
0.0
 11
45.6783771147763389
 21
95.0789465900679573
 31
0.0
  0
INSERT
  5
2875B
  8
寸法
 62
     2
  2
_DOT
 10
45.6783771147763389
 20
96.0789465900679147
 30
0.0
 41
0.4
 42
0.4
 43
0.4
 50
270.0
  0
INSERT
  5
2875C
  8
寸法
 62
     2
  2
_DOT
 10
45.6783771147763389
 20
95.8789465900679545
 30
0.0
 41
0.4
 42
0.4
 43
0.4
 50
90.0
  0
INSERT
  5
2875D
  8
寸法
  2
*U45
 10
0.0
 20
0.0
 30
0.0
  0
POINT
  5
2875E
  8
DEFPOINTS
 62
     0
 10
51.2851498580701133
 20
96.0789465900679147
 30
0.0
  0
POINT
  5
2875F
  8
DEFPOINTS
 62
     0
 10
51.2851498580701133
 20
95.8789465900679545
 30
0.0
  0
POINT
  5
28760
  8
DEFPOINTS
 62
     0
 10
45.6783771147763389
 20
95.8789465900679545
 30
0.0
  0
ENDBLK
  5
24EB1
  8
0
  0
BLOCK
  8
0
  2
*D13
 70
     1
 10
0.0
 20
0.0
 30
0.0
  3
*D13
  1

  0
LINE
  5
28761
  8
寸法
 62
     2
 10
207.4814501619082989
 20
168.2798668458459872
 30
0.0
 11
203.8058464059766095
 21
168.2798668458459872
 31
0.0
  0
LINE
  5
28762
  8
寸法
 62
     2
 10
207.4366581245380985
 20
128.2809244328857972
 30
0.0
 11
203.8058464059766095
 21
128.2809244328857972
 31
0.0
  0
LINE
  5
28763
  8
寸法
 62
     2
 10
203.8058464059766095
 20
167.8798668458460099
 30
0.0
 11
203.8058464059766095
 21
128.6809244328858028
 31
0.0
  0
INSERT
  5
28764
  8
寸法
 62
     2
  2
_DOT
 10
203.8058464059766095
 20
168.2798668458459872
 30
0.0
 41
0.4
 42
0.4
 43
0.4
 50
90.0
  0
INSERT
  5
28765
  8
寸法
 62
     2
  2
_DOT
 10
203.8058464059766095
 20
128.2809244328857972
 30
0.0
 41
0.4
 42
0.4
 43
0.4
 50
270.0
  0
INSERT
  5
28766
  8
寸法
  2
*U46
 10
0.0
 20
0.0
 30
0.0
  0
POINT
  5
28767
  8
DEFPOINTS
 62
     0
 10
209.4814501619082989
 20
168.2798668458459872
 30
0.0
  0
POINT
  5
28768
  8
DEFPOINTS
 62
     0
 10
209.4366581245380985
 20
128.2809244328857972
 30
0.0
  0
POINT
  5
28769
  8
DEFPOINTS
 62
     0
 10
203.8058464059766095
 20
128.2809244328857972
 30
0.0
  0
ENDBLK
  5
26778
  8
0
  0
BLOCK
  8
0
  2
*D14
 70
     1
 10
0.0
 20
0.0
 30
0.0
  3
*D14
  1

  0
LINE
  5
2876A
  8
寸法
 62
     2
 10
207.3033251256269978
 20
128.2812230615105022
 30
0.0
 11
200.8761255656652054
 21
128.2812230615105022
 31
0.0
  0
LINE
  5
2876B
  8
寸法
 62
     2
 10
207.3018296595656977
 20
127.6135209118721008
 30
0.0
 11
200.8761255656652054
 21
127.6135209118721008
 31
0.0
  0
LINE
  5
2876C
  8
寸法
 62
     2
 10
200.8761255656652054
 20
128.6812230615105079
 30
0.0
 11
200.8761255656652054
 21
129.0812230615105136
 31
0.0
  0
LINE
  5
2876D
  8
寸法
 62
     2
 10
200.8761255656652054
 20
127.2135209118720951
 30
0.0
 11
200.8761255656652054
 21
123.9635209118721946
 31
0.0
  0
INSERT
  5
2876E
  8
寸法
 62
     2
  2
_DOT
 10
200.8761255656652054
 20
128.2812230615105022
 30
0.0
 41
0.4
 42
0.4
 43
0.4
 50
270.0
  0
INSERT
  5
2876F
  8
寸法
 62
     2
  2
_DOT
 10
200.8761255656652054
 20
127.6135209118721008
 30
0.0
 41
0.4
 42
0.4
 43
0.4
 50
90.0
  0
INSERT
  5
28770
  8
寸法
  2
*U47
 10
0.0
 20
0.0
 30
0.0
  0
POINT
  5
28771
  8
DEFPOINTS
 62
     0
 10
209.3033251256269978
 20
128.2812230615105022
 30
0.0
  0
POINT
  5
28772
  8
DEFPOINTS
 62
     0
 10
209.3018296595656977
 20
127.6135209118721008
 30
0.0
  0
POINT
  5
28773
  8
DEFPOINTS
 62
     0
 10
200.8761255656652054
 20
127.6135209118721008
 30
0.0
  0
ENDBLK
  5
26790
  8
0
  0
BLOCK
  8
0
  2
*D15
 70
     1
 10
0.0
 20
0.0
 30
0.0
  3
*D15
  1

  0
LINE
  5
28774
  8
寸法
 62
     2
 10
208.7484897343045986
 20
170.2820121866031968
 30
0.0
 11
208.7484897343045986
 21
174.5780922628385099
 31
0.0
  0
LINE
  5
28775
  8
寸法
 62
     2
 10
213.7830817368325995
 20
170.2707361086754076
 30
0.0
 11
213.7830817368325995
 21
174.5780922628385099
 31
0.0
  0
LINE
  5
28776
  8
寸法
 62
     2
 10
209.1484897343046043
 20
174.5780922628385099
 30
0.0
 11
213.3830817368325938
 21
174.5780922628385099
 31
0.0
  0
INSERT
  5
28777
  8
寸法
 62
     2
  2
_DOT
 10
208.7484897343045986
 20
174.5780922628385099
 30
0.0
 41
0.4
 42
0.4
 43
0.4
 50
180.0
  0
INSERT
  5
28778
  8
寸法
 62
     2
  2
_DOT
 10
213.7830817368325995
 20
174.5780922628385099
 30
0.0
 41
0.4
 42
0.4
 43
0.4
  0
INSERT
  5
28779
  8
寸法
  2
*U48
 10
0.0
 20
0.0
 30
0.0
  0
POINT
  5
2877A
  8
DEFPOINTS
 62
     0
 10
208.7484897343045986
 20
168.2820121866031968
 30
0.0
  0
POINT
  5
2877B
  8
DEFPOINTS
 62
     0
 10
213.7830817368325995
 20
168.2707361086754076
 30
0.0
  0
POINT
  5
2877C
  8
DEFPOINTS
 62
     0
 10
213.7830817368325995
 20
174.5780922628385099
 30
0.0
  0
ENDBLK
  5
26822
  8
0
  0
BLOCK
  8
0
  2
*D16
 70
     1
 10
0.0
 20
0.0
 30
0.0
  3
*D16
  1

  0
LINE
  5
2877D
  8
寸法
 62
     2
 10
206.9730475797464067
 20
82.9505476721085557
 30
0.0
 11
204.6996576958360095
 21
82.9505476721085557
 31
0.0
  0
LINE
  5
2877E
  8
寸法
 62
     2
 10
206.9730475797464067
 20
62.8526374385948827
 30
0.0
 11
204.6996576958360095
 21
62.8526374385948827
 31
0.0
  0
LINE
  5
2877F
  8
寸法
 62
     2
 10
204.6996576958360095
 20
82.5505476721085643
 30
0.0
 11
204.6996576958360095
 21
63.2526374385948671
 31
0.0
  0
INSERT
  5
28780
  8
寸法
 62
     2
  2
_DOT
 10
204.6996576958360095
 20
82.9505476721085557
 30
0.0
 41
0.4
 42
0.4
 43
0.4
 50
90.0
  0
INSERT
  5
28781
  8
寸法
 62
     2
  2
_DOT
 10
204.6996576958360095
 20
62.8526374385948827
 30
0.0
 41
0.4
 42
0.4
 43
0.4
 50
270.0
  0
INSERT
  5
28782
  8
寸法
  2
*U49
 10
0.0
 20
0.0
 30
0.0
  0
POINT
  5
28783
  8
DEFPOINTS
 62
     0
 10
208.9730475797464067
 20
82.9505476721085557
 30
0.0
  0
POINT
  5
28784
  8
DEFPOINTS
 62
     0
 10
208.9730475797464067
 20
62.8526374385948827
 30
0.0
  0
POINT
  5
28785
  8
DEFPOINTS
 62
     0
 10
204.6996576958360095
 20
62.8526374385948827
 30
0.0
  0
ENDBLK
  5
27CAE
  8
0
  0
BLOCK
  8
0
  2
*D17
 70
     1
 10
0.0
 20
0.0
 30
0.0
  3
*D17
  1

  0
LINE
  5
28786
  8
寸法
 62
     2
 10
206.9730475797464067
 20
62.8526374385948827
 30
0.0
 11
204.6996576958364074
 21
62.8526374385948827
 31
0.0
  0
LINE
  5
28787
  8
寸法
 62
     2
 10
206.9730475797464067
 20
50.1863813862871879
 30
0.0
 11
204.6996576958364074
 21
50.1863813862871879
 31
0.0
  0
LINE
  5
28788
  8
寸法
 62
     2
 10
204.6996576958364074
 20
62.452637438594877
 30
0.0
 11
204.6996576958364074
 21
50.5863813862871865
 31
0.0
  0
INSERT
  5
28789
  8
寸法
 62
     2
  2
_DOT
 10
204.6996576958364074
 20
62.8526374385948827
 30
0.0
 41
0.4
 42
0.4
 43
0.4
 50
90.0
  0
INSERT
  5
2878A
  8
寸法
 62
     2
  2
_DOT
 10
204.6996576958364074
 20
50.1863813862871879
 30
0.0
 41
0.4
 42
0.4
 43
0.4
 50
270.0
  0
INSERT
  5
2878B
  8
寸法
  2
*U50
 10
0.0
 20
0.0
 30
0.0
  0
POINT
  5
2878C
  8
DEFPOINTS
 62
     0
 10
208.9730475797464067
 20
62.8526374385948827
 30
0.0
  0
POINT
  5
2878D
  8
DEFPOINTS
 62
     0
 10
208.9730475797464067
 20
50.1863813862872021
 30
0.0
  0
POINT
  5
2878E
  8
DEFPOINTS
 62
     0
 10
204.6996576958364074
 20
50.1863813862871879
 30
0.0
  0
ENDBLK
  5
27CBA
  8
0
  0
BLOCK
  8
0
  2
*D20
 70
     1
 10
0.0
 20
0.0
 30
0.0
  3
*D20
  1

  0
LINE
  5
287A1
  8
寸法
 62
     2
 10
207.3077862503452877
 20
127.6157593602841018
 30
0.0
 11
204.6996576958351
 21
127.6157593602841018
 31
0.0
  0
LINE
  5
287A2
  8
寸法
 62
     2
 10
207.3077862503452877
 20
110.2785056901957006
 30
0.0
 11
204.6996576958351
 21
110.2785056901957006
 31
0.0
  0
LINE
  5
287A3
  8
寸法
 62
     2
 10
204.6996576958351
 20
127.2157593602840961
 30
0.0
 11
204.6996576958351
 21
110.6785056901957063
 31
0.0
  0
INSERT
  5
287A4
  8
寸法
 62
     2
  2
_DOT
 10
204.6996576958351
 20
127.6157593602841018
 30
0.0
 41
0.4
 42
0.4
 43
0.4
 50
90.0
  0
INSERT
  5
287A5
  8
寸法
 62
     2
  2
_DOT
 10
204.6996576958351
 20
110.2785056901957006
 30
0.0
 41
0.4
 42
0.4
 43
0.4
 50
270.0
  0
INSERT
  5
287A6
  8
寸法
  2
*U53
 10
0.0
 20
0.0
 30
0.0
  0
POINT
  5
287A7
  8
DEFPOINTS
 62
     0
 10
209.3077862503452877
 20
127.6157593602841018
 30
0.0
  0
POINT
  5
287A8
  8
DEFPOINTS
 62
     0
 10
209.3077862503452877
 20
110.2785056901957006
 30
0.0
  0
POINT
  5
287A9
  8
DEFPOINTS
 62
     0
 10
204.6996576958351
 20
110.2785056901957006
 30
0.0
  0
ENDBLK
  5
27D88
  8
0
  0
BLOCK
  8
0
  2
*D21
 70
     1
 10
0.0
 20
0.0
 30
0.0
  3
*D21
  1

  0
LINE
  5
287AA
  8
寸法
 62
     2
 10
206.9663594377175002
 20
110.2785056901957006
 30
0.0
 11
204.6996576958352136
 21
110.2785056901957006
 31
0.0
  0
LINE
  5
287AB
  8
寸法
 62
     2
 10
206.9663594377175002
 20
90.2785056901957148
 30
0.0
 11
204.6996576958352136
 21
90.2785056901957148
 31
0.0
  0
LINE
  5
287AC
  8
寸法
 62
     2
 10
204.6996576958352136
 20
109.8785056901956949
 30
0.0
 11
204.6996576958352136
 21
90.6785056901957205
 31
0.0
  0
INSERT
  5
287AD
  8
寸法
 62
     2
  2
_DOT
 10
204.6996576958352136
 20
110.2785056901957006
 30
0.0
 41
0.4
 42
0.4
 43
0.4
 50
90.0
  0
INSERT
  5
287AE
  8
寸法
 62
     2
  2
_DOT
 10
204.6996576958352136
 20
90.2785056901957148
 30
0.0
 41
0.4
 42
0.4
 43
0.4
 50
270.0
  0
INSERT
  5
287AF
  8
寸法
  2
*U54
 10
0.0
 20
0.0
 30
0.0
  0
POINT
  5
287B0
  8
DEFPOINTS
 62
     0
 10
208.9663594377175002
 20
110.2785056901957006
 30
0.0
  0
POINT
  5
287B1
  8
DEFPOINTS
 62
     0
 10
208.9663594377175002
 20
90.2785056901957148
 30
0.0
  0
POINT
  5
287B2
  8
DEFPOINTS
 62
     0
 10
204.6996576958352136
 20
90.2785056901957148
 30
0.0
  0
ENDBLK
  5
27D94
  8
0
  0
BLOCK
  8
0
  2
*D22
 70
     1
 10
0.0
 20
0.0
 30
0.0
  3
*D22
  1

  0
LINE
  5
287B3
  8
寸法
 62
     2
 10
206.9663594377175002
 20
90.2785056901957148
 30
0.0
 11
204.6996576958356115
 21
90.2785056901957148
 31
0.0
  0
LINE
  5
287B4
  8
寸法
 62
     2
 10
206.9730475797464067
 20
82.9505476721085557
 30
0.0
 11
204.6996576958356115
 21
82.9505476721085557
 31
0.0
  0
LINE
  5
287B5
  8
寸法
 62
     2
 10
204.6996576958356115
 20
89.8785056901956949
 30
0.0
 11
204.6996576958356115
 21
83.3505476721085756
 31
0.0
  0
INSERT
  5
287B6
  8
寸法
 62
     2
  2
_DOT
 10
204.6996576958356115
 20
90.2785056901957148
 30
0.0
 41
0.4
 42
0.4
 43
0.4
 50
90.0
  0
INSERT
  5
287B7
  8
寸法
 62
     2
  2
_DOT
 10
204.6996576958356115
 20
82.9505476721085557
 30
0.0
 41
0.4
 42
0.4
 43
0.4
 50
270.0
  0
INSERT
  5
287B8
  8
寸法
  2
*U55
 10
0.0
 20
0.0
 30
0.0
  0
POINT
  5
287B9
  8
DEFPOINTS
 62
     0
 10
208.9663594377175002
 20
90.2785056901957148
 30
0.0
  0
POINT
  5
287BA
  8
DEFPOINTS
 62
     0
 10
208.9730475797464067
 20
82.9505476721085557
 30
0.0
  0
POINT
  5
287BB
  8
DEFPOINTS
 62
     0
 10
204.6996576958356115
 20
82.9505476721085557
 30
0.0
  0
ENDBLK
  5
27DA0
  8
0
  0
BLOCK
  8
0
  2
*D23
 70
     1
 10
0.0
 20
0.0
 30
0.0
  3
*D23
  1

  0
LINE
  5
287BC
  8
寸法
 62
     2
 10
51.2851498580700778
 20
44.2379160339309507
 30
0.0
 11
51.2851498580700778
 21
41.6347234785705993
 31
0.0
  0
LINE
  5
287BD
  8
寸法
 62
     2
 10
57.0851498580700891
 20
44.2379160339309507
 30
0.0
 11
57.0851498580700891
 21
41.6347234785705993
 31
0.0
  0
LINE
  5
287BE
  8
寸法
 62
     2
 10
51.6851498580700692
 20
41.6347234785705993
 30
0.0
 11
56.6851498580700905
 21
41.6347234785705993
 31
0.0
  0
INSERT
  5
287BF
  8
寸法
 62
     2
  2
_DOT
 10
51.2851498580700778
 20
41.6347234785705993
 30
0.0
 41
0.4
 42
0.4
 43
0.4
 50
180.0
  0
INSERT
  5
287C0
  8
寸法
 62
     2
  2
_DOT
 10
57.0851498580700891
 20
41.6347234785705993
 30
0.0
 41
0.4
 42
0.4
 43
0.4
  0
INSERT
  5
287C1
  8
寸法
  2
*U56
 10
0.0
 20
0.0
 30
0.0
  0
POINT
  5
287C2
  8
DEFPOINTS
 62
     0
 10
51.2851498580700778
 20
46.2379160339309578
 30
0.0
  0
POINT
  5
287C3
  8
DEFPOINTS
 62
     0
 10
57.0851498580700891
 20
46.2379160339309578
 30
0.0
  0
POINT
  5
287C4
  8
DEFPOINTS
 62
     0
 10
57.0851498580700891
 20
41.6347234785705993
 30
0.0
  0
ENDBLK
  5
28140
  8
0
  0
BLOCK
  8
0
  2
*D24
 70
     1
 10
0.0
 20
0.0
 30
0.0
  3
*D24
  1

  0
LINE
  5
287C5
  8
寸法
 62
     2
 10
57.0851498580700891
 20
44.2379160339309507
 30
0.0
 11
57.0851498580700891
 21
41.6347234785705993
 31
0.0
  0
LINE
  5
287C6
  8
寸法
 62
     2
 10
74.085149858070082
 20
44.2379160339309507
 30
0.0
 11
74.085149858070082
 21
41.6347234785705993
 31
0.0
  0
LINE
  5
287C7
  8
寸法
 62
     2
 10
57.4851498580700877
 20
41.6347234785705993
 30
0.0
 11
73.6851498580700763
 21
41.6347234785705993
 31
0.0
  0
INSERT
  5
287C8
  8
寸法
 62
     2
  2
_DOT
 10
57.0851498580700891
 20
41.6347234785705993
 30
0.0
 41
0.4
 42
0.4
 43
0.4
 50
180.0
  0
INSERT
  5
287C9
  8
寸法
 62
     2
  2
_DOT
 10
74.085149858070082
 20
41.6347234785705993
 30
0.0
 41
0.4
 42
0.4
 43
0.4
  0
INSERT
  5
287CA
  8
寸法
  2
*U57
 10
0.0
 20
0.0
 30
0.0
  0
POINT
  5
287CB
  8
DEFPOINTS
 62
     0
 10
57.0851498580700891
 20
46.2379160339309578
 30
0.0
  0
POINT
  5
287CC
  8
DEFPOINTS
 62
     0
 10
74.085149858070082
 20
46.2379160339309578
 30
0.0
  0
POINT
  5
287CD
  8
DEFPOINTS
 62
     0
 10
74.085149858070082
 20
41.6347234785705993
 30
0.0
  0
ENDBLK
  5
2814C
  8
0
  0
BLOCK
  8
0
  2
*D25
 70
     1
 10
0.0
 20
0.0
 30
0.0
  3
*D25
  1

  0
LINE
  5
287CE
  8
寸法
 62
     2
 10
74.085149858070082
 20
44.2379160339309507
 30
0.0
 11
74.085149858070082
 21
41.5767779652176728
 31
0.0
  0
LINE
  5
287CF
  8
寸法
 62
     2
 10
75.8851498580700934
 20
44.2379160339309507
 30
0.0
 11
75.8851498580700934
 21
41.5767779652176728
 31
0.0
  0
LINE
  5
287D0
  8
寸法
 62
     2
 10
73.6851498580700763
 20
41.5767779652176728
 30
0.0
 11
73.2851498580700849
 21
41.5767779652176728
 31
0.0
  0
LINE
  5
287D1
  8
寸法
 62
     2
 10
76.2851498580700991
 20
41.5767779652176728
 30
0.0
 11
76.6851498580700905
 21
41.5767779652176728
 31
0.0
  0
INSERT
  5
287D2
  8
寸法
 62
     2
  2
_DOT
 10
74.085149858070082
 20
41.5767779652176728
 30
0.0
 41
0.4
 42
0.4
 43
0.4
  0
INSERT
  5
287D3
  8
寸法
 62
     2
  2
_DOT
 10
75.8851498580700934
 20
41.5767779652176728
 30
0.0
 41
0.4
 42
0.4
 43
0.4
 50
180.0
  0
INSERT
  5
287D4
  8
寸法
  2
*U58
 10
0.0
 20
0.0
 30
0.0
  0
POINT
  5
287D5
  8
DEFPOINTS
 62
     0
 10
74.085149858070082
 20
46.2379160339309578
 30
0.0
  0
POINT
  5
287D6
  8
DEFPOINTS
 62
     0
 10
75.8851498580700934
 20
46.2379160339309578
 30
0.0
  0
POINT
  5
287D7
  8
DEFPOINTS
 62
     0
 10
75.8851498580700934
 20
41.5767779652176728
 30
0.0
  0
ENDBLK
  5
28158
  8
0
  0
BLOCK
  8
0
  2
*D26
 70
     1
 10
0.0
 20
0.0
 30
0.0
  3
*D26
  1

  0
LINE
  5
287D8
  8
寸法
 62
     2
 10
75.8851498580700934
 20
44.2379160339309507
 30
0.0
 11
75.8851498580700934
 21
41.6347234785705993
 31
0.0
  0
LINE
  5
287D9
  8
寸法
 62
     2
 10
92.8851498580700934
 20
44.2379160339309507
 30
0.0
 11
92.8851498580700934
 21
41.6347234785705993
 31
0.0
  0
LINE
  5
287DA
  8
寸法
 62
     2
 10
76.2851498580700991
 20
41.6347234785705993
 30
0.0
 11
92.4851498580700877
 21
41.6347234785705993
 31
0.0
  0
INSERT
  5
287DB
  8
寸法
 62
     2
  2
_DOT
 10
75.8851498580700934
 20
41.6347234785705993
 30
0.0
 41
0.4
 42
0.4
 43
0.4
 50
180.0
  0
INSERT
  5
287DC
  8
寸法
 62
     2
  2
_DOT
 10
92.8851498580700934
 20
41.6347234785705993
 30
0.0
 41
0.4
 42
0.4
 43
0.4
  0
INSERT
  5
287DD
  8
寸法
  2
*U59
 10
0.0
 20
0.0
 30
0.0
  0
POINT
  5
287DE
  8
DEFPOINTS
 62
     0
 10
75.8851498580700934
 20
46.2379160339309578
 30
0.0
  0
POINT
  5
287DF
  8
DEFPOINTS
 62
     0
 10
92.8851498580700934
 20
46.2379160339309578
 30
0.0
  0
POINT
  5
287E0
  8
DEFPOINTS
 62
     0
 10
92.8851498580700934
 20
41.6347234785705993
 30
0.0
  0
ENDBLK
  5
28165
  8
0
  0
BLOCK
  8
0
  2
*D27
 70
     1
 10
0.0
 20
0.0
 30
0.0
  3
*D27
  1

  0
LINE
  5
287E1
  8
本体1
 62
     2
 10
92.8851498580700934
 20
44.2379160339309507
 30
0.0
 11
92.8851498580700934
 21
41.6347234785705993
 31
0.0
  0
LINE
  5
287E2
  8
本体1
 62
     2
 10
95.2851498580700706
 20
44.2379160339309507
 30
0.0
 11
95.2851498580700706
 21
41.6347234785705993
 31
0.0
  0
LINE
  5
287E3
  8
本体1
 62
     2
 10
93.2851498580700849
 20
41.6347234785705993
 30
0.0
 11
94.885149858070065
 21
41.6347234785705993
 31
0.0
  0
INSERT
  5
287E4
  8
本体1
 62
     2
  2
_DOT
 10
92.8851498580700934
 20
41.6347234785705993
 30
0.0
 41
0.4
 42
0.4
 43
0.4
 50
180.0
  0
INSERT
  5
287E5
  8
本体1
 62
     2
  2
_DOT
 10
95.2851498580700706
 20
41.6347234785705993
 30
0.0
 41
0.4
 42
0.4
 43
0.4
  0
INSERT
  5
287E6
  8
寸法
  2
*U60
 10
0.0
 20
0.0
 30
0.0
  0
POINT
  5
287E7
  8
DEFPOINTS
 62
     0
 10
92.8851498580700934
 20
46.2379160339309578
 30
0.0
  0
POINT
  5
287E8
  8
DEFPOINTS
 62
     0
 10
95.2851498580700706
 20
46.2379160339309578
 30
0.0
  0
POINT
  5
287E9
  8
DEFPOINTS
 62
     0
 10
95.2851498580700706
 20
41.6347234785705993
 30
0.0
  0
ENDBLK
  5
28171
  8
0
  0
BLOCK
  8
0
  2
*D28
 70
     1
 10
0.0
 20
0.0
 30
0.0
  3
*D28
  1

  0
LINE
  5
287EA
  8
寸法
 62
     2
 10
47.6079965496667228
 20
90.678946590067909
 30
0.0
 11
45.7621347283867976
 21
90.678946590067909
 31
0.0
  0
LINE
  5
287EB
  8
寸法
 62
     2
 10
47.6079965496667228
 20
84.678946590067909
 30
0.0
 11
45.7621347283867976
 21
84.678946590067909
 31
0.0
  0
LINE
  5
287EC
  8
寸法
 62
     2
 10
45.7621347283867976
 20
90.2789465900679033
 30
0.0
 11
45.7621347283867976
 21
85.0789465900679147
 31
0.0
  0
INSERT
  5
287ED
  8
寸法
 62
     2
  2
_DOT
 10
45.7621347283867976
 20
90.678946590067909
 30
0.0
 41
0.4
 42
0.4
 43
0.4
 50
90.0
  0
INSERT
  5
287EE
  8
寸法
 62
     2
  2
_DOT
 10
45.7621347283867976
 20
84.678946590067909
 30
0.0
 41
0.4
 42
0.4
 43
0.4
 50
270.0
  0
INSERT
  5
287EF
  8
寸法
  2
*U61
 10
0.0
 20
0.0
 30
0.0
  0
POINT
  5
287F0
  8
DEFPOINTS
 62
     0
 10
49.6079965496667299
 20
90.678946590067909
 30
0.0
  0
POINT
  5
287F1
  8
DEFPOINTS
 62
     0
 10
49.6079965496667299
 20
84.678946590067909
 30
0.0
  0
POINT
  5
287F2
  8
DEFPOINTS
 62
     0
 10
45.7621347283867976
 20
84.678946590067909
 30
0.0
  0
ENDBLK
  5
28189
  8
0
  0
BLOCK
  8
0
  2
*D29
 70
     1
 10
0.0
 20
0.0
 30
0.0
  3
*D29
  1

  0
LINE
  5
287F3
  8
寸法
 62
     2
 10
47.6079965496667512
 20
84.678946590067909
 30
0.0
 11
45.7621347283868687
 21
84.678946590067909
 31
0.0
  0
LINE
  5
287F4
  8
寸法
 62
     2
 10
47.6079965496667512
 20
82.4789465900679204
 30
0.0
 11
45.7621347283868687
 21
82.4789465900679204
 31
0.0
  0
LINE
  5
287F5
  8
寸法
 62
     2
 10
45.7621347283868687
 20
84.2789465900679033
 30
0.0
 11
45.7621347283868687
 21
82.8789465900679261
 31
0.0
  0
INSERT
  5
287F6
  8
寸法
 62
     2
  2
_DOT
 10
45.7621347283868687
 20
84.678946590067909
 30
0.0
 41
0.4
 42
0.4
 43
0.4
 50
90.0
  0
INSERT
  5
287F7
  8
寸法
 62
     2
  2
_DOT
 10
45.7621347283868687
 20
82.4789465900679204
 30
0.0
 41
0.4
 42
0.4
 43
0.4
 50
270.0
  0
INSERT
  5
287F8
  8
寸法
  2
*U62
 10
0.0
 20
0.0
 30
0.0
  0
POINT
  5
287F9
  8
DEFPOINTS
 62
     0
 10
49.6079965496667583
 20
84.678946590067909
 30
0.0
  0
POINT
  5
287FA
  8
DEFPOINTS
 62
     0
 10
49.6079965496667583
 20
82.4789465900679204
 30
0.0
  0
POINT
  5
287FB
  8
DEFPOINTS
 62
     0
 10
45.7621347283868687
 20
82.4789465900679204
 30
0.0
  0
ENDBLK
  5
28195
  8
0
  0
BLOCK
  8
0
  2
*D30
 70
     1
 10
0.0
 20
0.0
 30
0.0
  3
*D30
  1

  0
LINE
  5
287FC
  8
寸法
 62
     2
 10
47.8942475972700379
 20
51.8789465900678266
 30
0.0
 11
45.7621347283869682
 21
51.8789465900678266
 31
0.0
  0
LINE
  5
287FD
  8
寸法
 62
     2
 10
47.8942475972700379
 20
48.0789465900679431
 30
0.0
 11
45.7621347283869682
 21
48.0789465900679431
 31
0.0
  0
LINE
  5
287FE
  8
寸法
 62
     2
 10
45.7621347283869682
 20
51.4789465900678422
 30
0.0
 11
45.7621347283869682
 21
48.4789465900679417
 31
0.0
  0
INSERT
  5
287FF
  8
寸法
 62
     2
  2
_DOT
 10
45.7621347283869682
 20
51.8789465900678266
 30
0.0
 41
0.4
 42
0.4
 43
0.4
 50
90.0
  0
INSERT
  5
28800
  8
寸法
 62
     2
  2
_DOT
 10
45.7621347283869682
 20
48.0789465900679431
 30
0.0
 41
0.4
 42
0.4
 43
0.4
 50
270.0
  0
INSERT
  5
28801
  8
寸法
  2
*U63
 10
0.0
 20
0.0
 30
0.0
  0
POINT
  5
28802
  8
DEFPOINTS
 62
     0
 10
49.8942475972700379
 20
51.8789465900678408
 30
0.0
  0
POINT
  5
28803
  8
DEFPOINTS
 62
     0
 10
49.8942475972700379
 20
48.0789465900679502
 30
0.0
  0
POINT
  5
28804
  8
DEFPOINTS
 62
     0
 10
45.7621347283869682
 20
48.0789465900679431
 30
0.0
  0
ENDBLK
  5
281A1
  8
0
  0
BLOCK
  8
0
  2
*D31
 70
     1
 10
0.0
 20
0.0
 30
0.0
  3
*D31
  1

  0
LINE
  5
28805
  8
寸法
 62
     2
 10
47.6079965496667228
 20
82.4789465900679204
 30
0.0
 11
45.7621347283868474
 21
82.4789465900679204
 31
0.0
  0
LINE
  5
28806
  8
寸法
 62
     2
 10
47.6079965496667228
 20
76.4789465900679204
 30
0.0
 11
45.7621347283868616
 21
76.4789465900679204
 31
0.0
  0
LINE
  5
28807
  8
寸法
 62
     2
 10
45.7621347283868474
 20
82.0789465900679147
 30
0.0
 11
45.7621347283868616
 21
76.8789465900679261
 31
0.0
  0
INSERT
  5
28808
  8
寸法
 62
     2
  2
_DOT
 10
45.7621347283868474
 20
82.4789465900679204
 30
0.0
 41
0.4
 42
0.4
 43
0.4
 50
90.0
  0
INSERT
  5
28809
  8
寸法
 62
     2
  2
_DOT
 10
45.7621347283868616
 20
76.4789465900679204
 30
0.0
 41
0.4
 42
0.4
 43
0.4
 50
270.0
  0
INSERT
  5
2880A
  8
寸法
  2
*U64
 10
0.0
 20
0.0
 30
0.0
  0
POINT
  5
2880B
  8
DEFPOINTS
 62
     0
 10
49.6079965496667299
 20
82.4789465900679204
 30
0.0
  0
POINT
  5
2880C
  8
DEFPOINTS
 62
     0
 10
49.6079965496667299
 20
76.4789465900679204
 30
0.0
  0
POINT
  5
2880D
  8
DEFPOINTS
 62
     0
 10
45.7621347283868616
 20
76.4789465900679204
 30
0.0
  0
ENDBLK
  5
281AD
  8
0
  0
BLOCK
  8
0
  2
*D32
 70
     1
 10
0.0
 20
0.0
 30
0.0
  3
*D32
  1

  0
LINE
  5
2880E
  8
寸法
 62
     2
 10
47.6079965496667512
 20
76.4789465900679204
 30
0.0
 11
45.7621347283868971
 21
76.4789465900679204
 31
0.0
  0
LINE
  5
2880F
  8
寸法
 62
     2
 10
47.6079965496667512
 20
74.2789465900678749
 30
0.0
 11
45.7621347283868971
 21
74.2789465900678749
 31
0.0
  0
LINE
  5
28810
  8
寸法
 62
     2
 10
45.7621347283868971
 20
76.0789465900679147
 30
0.0
 11
45.7621347283868971
 21
74.6789465900678806
 31
0.0
  0
INSERT
  5
28811
  8
寸法
 62
     2
  2
_DOT
 10
45.7621347283868971
 20
76.4789465900679204
 30
0.0
 41
0.4
 42
0.4
 43
0.4
 50
90.0
  0
INSERT
  5
28812
  8
寸法
 62
     2
  2
_DOT
 10
45.7621347283868971
 20
74.2789465900678749
 30
0.0
 41
0.4
 42
0.4
 43
0.4
 50
270.0
  0
INSERT
  5
28813
  8
寸法
  2
*U65
 10
0.0
 20
0.0
 30
0.0
  0
POINT
  5
28814
  8
DEFPOINTS
 62
     0
 10
49.6079965496667583
 20
76.4789465900679204
 30
0.0
  0
POINT
  5
28815
  8
DEFPOINTS
 62
     0
 10
49.6079965496667583
 20
74.2789465900678749
 30
0.0
  0
POINT
  5
28816
  8
DEFPOINTS
 62
     0
 10
45.7621347283868971
 20
74.2789465900678749
 30
0.0
  0
ENDBLK
  5
281B9
  8
0
  0
BLOCK
  8
0
  2
*D33
 70
     1
 10
0.0
 20
0.0
 30
0.0
  3
*D33
  1

  0
LINE
  5
28817
  8
寸法
 62
     2
 10
47.6079965496667512
 20
74.2789465900678749
 30
0.0
 11
45.7621347283868616
 21
74.2789465900678749
 31
0.0
  0
LINE
  5
28818
  8
寸法
 62
     2
 10
47.6079965496667512
 20
68.2789465900678749
 30
0.0
 11
45.7621347283868616
 21
68.2789465900678749
 31
0.0
  0
LINE
  5
28819
  8
寸法
 62
     2
 10
45.7621347283868616
 20
73.8789465900678692
 30
0.0
 11
45.7621347283868616
 21
68.6789465900678806
 31
0.0
  0
INSERT
  5
2881A
  8
寸法
 62
     2
  2
_DOT
 10
45.7621347283868616
 20
74.2789465900678749
 30
0.0
 41
0.4
 42
0.4
 43
0.4
 50
90.0
  0
INSERT
  5
2881B
  8
寸法
 62
     2
  2
_DOT
 10
45.7621347283868616
 20
68.2789465900678749
 30
0.0
 41
0.4
 42
0.4
 43
0.4
 50
270.0
  0
INSERT
  5
2881C
  8
寸法
  2
*U66
 10
0.0
 20
0.0
 30
0.0
  0
POINT
  5
2881D
  8
DEFPOINTS
 62
     0
 10
49.6079965496667583
 20
74.2789465900678749
 30
0.0
  0
POINT
  5
2881E
  8
DEFPOINTS
 62
     0
 10
49.6079965496667583
 20
68.2789465900678749
 30
0.0
  0
POINT
  5
2881F
  8
DEFPOINTS
 62
     0
 10
45.7621347283868616
 20
68.2789465900678749
 30
0.0
  0
ENDBLK
  5
281C5
  8
0
  0
BLOCK
  8
0
  2
*D34
 70
     1
 10
0.0
 20
0.0
 30
0.0
  3
*D34
  1

  0
LINE
  5
28820
  8
寸法
 62
     2
 10
47.6079965496667512
 20
68.2789465900678749
 30
0.0
 11
45.7621347283868687
 21
68.2789465900678749
 31
0.0
  0
LINE
  5
28821
  8
寸法
 62
     2
 10
47.6079965496667725
 20
66.0789465900678863
 30
0.0
 11
45.7621347283868687
 21
66.0789465900678863
 31
0.0
  0
LINE
  5
28822
  8
寸法
 62
     2
 10
45.7621347283868687
 20
67.8789465900678692
 30
0.0
 11
45.7621347283868687
 21
66.478946590067892
 31
0.0
  0
INSERT
  5
28823
  8
寸法
 62
     2
  2
_DOT
 10
45.7621347283868687
 20
68.2789465900678749
 30
0.0
 41
0.4
 42
0.4
 43
0.4
 50
90.0
  0
INSERT
  5
28824
  8
寸法
 62
     2
  2
_DOT
 10
45.7621347283868687
 20
66.0789465900678863
 30
0.0
 41
0.4
 42
0.4
 43
0.4
 50
270.0
  0
INSERT
  5
28825
  8
寸法
  2
*U67
 10
0.0
 20
0.0
 30
0.0
  0
POINT
  5
28826
  8
DEFPOINTS
 62
     0
 10
49.6079965496667583
 20
68.2789465900678749
 30
0.0
  0
POINT
  5
28827
  8
DEFPOINTS
 62
     0
 10
49.6079965496667796
 20
66.0789465900678863
 30
0.0
  0
POINT
  5
28828
  8
DEFPOINTS
 62
     0
 10
45.7621347283868687
 20
66.0789465900678863
 30
0.0
  0
ENDBLK
  5
281D1
  8
0
  0
BLOCK
  8
0
  2
*D35
 70
     1
 10
0.0
 20
0.0
 30
0.0
  3
*D35
  1

  0
LINE
  5
28829
  8
寸法
 62
     2
 10
47.6079965496667512
 20
66.0789465900678863
 30
0.0
 11
45.76213472838689
 21
66.0789465900678863
 31
0.0
  0
LINE
  5
2882A
  8
寸法
 62
     2
 10
47.6079965496667512
 20
60.0789465900678792
 30
0.0
 11
45.76213472838689
 21
60.0789465900678792
 31
0.0
  0
LINE
  5
2882B
  8
寸法
 62
     2
 10
45.76213472838689
 20
65.6789465900678806
 30
0.0
 11
45.76213472838689
 21
60.4789465900678778
 31
0.0
  0
INSERT
  5
2882C
  8
寸法
 62
     2
  2
_DOT
 10
45.76213472838689
 20
66.0789465900678863
 30
0.0
 41
0.4
 42
0.4
 43
0.4
 50
90.0
  0
INSERT
  5
2882D
  8
寸法
 62
     2
  2
_DOT
 10
45.76213472838689
 20
60.0789465900678792
 30
0.0
 41
0.4
 42
0.4
 43
0.4
 50
270.0
  0
INSERT
  5
2882E
  8
寸法
  2
*U68
 10
0.0
 20
0.0
 30
0.0
  0
POINT
  5
2882F
  8
DEFPOINTS
 62
     0
 10
49.6079965496667583
 20
66.0789465900678863
 30
0.0
  0
POINT
  5
28830
  8
DEFPOINTS
 62
     0
 10
49.6079965496667583
 20
60.0789465900678792
 30
0.0
  0
POINT
  5
28831
  8
DEFPOINTS
 62
     0
 10
45.76213472838689
 20
60.0789465900678792
 30
0.0
  0
ENDBLK
  5
281DD
  8
0
  0
BLOCK
  8
0
  2
*D36
 70
     1
 10
0.0
 20
0.0
 30
0.0
  3
*D36
  1

  0
LINE
  5
28832
  8
寸法
 62
     2
 10
47.6079965496667512
 20
60.0789465900678792
 30
0.0
 11
45.7621347283869326
 21
60.0789465900678792
 31
0.0
  0
LINE
  5
28833
  8
寸法
 62
     2
 10
47.6079965496667725
 20
57.8789465900678906
 30
0.0
 11
45.7621347283869326
 21
57.8789465900678906
 31
0.0
  0
LINE
  5
28834
  8
寸法
 62
     2
 10
45.7621347283869326
 20
59.6789465900678806
 30
0.0
 11
45.7621347283869326
 21
58.2789465900678891
 31
0.0
  0
INSERT
  5
28835
  8
寸法
 62
     2
  2
_DOT
 10
45.7621347283869326
 20
60.0789465900678792
 30
0.0
 41
0.4
 42
0.4
 43
0.4
 50
90.0
  0
INSERT
  5
28836
  8
寸法
 62
     2
  2
_DOT
 10
45.7621347283869326
 20
57.8789465900678906
 30
0.0
 41
0.4
 42
0.4
 43
0.4
 50
270.0
  0
INSERT
  5
28837
  8
寸法
  2
*U69
 10
0.0
 20
0.0
 30
0.0
  0
POINT
  5
28838
  8
DEFPOINTS
 62
     0
 10
49.6079965496667583
 20
60.0789465900678792
 30
0.0
  0
POINT
  5
28839
  8
DEFPOINTS
 62
     0
 10
49.6079965496667796
 20
57.8789465900678977
 30
0.0
  0
POINT
  5
2883A
  8
DEFPOINTS
 62
     0
 10
45.7621347283869326
 20
57.8789465900678906
 30
0.0
  0
ENDBLK
  5
281E9
  8
0
  0
BLOCK
  8
0
  2
*D37
 70
     1
 10
0.0
 20
0.0
 30
0.0
  3
*D37
  1

  0
LINE
  5
2883B
  8
寸法
 62
     2
 10
47.6079965496667725
 20
57.8789465900678266
 30
0.0
 11
45.7621347283869113
 21
57.8789465900678266
 31
0.0
  0
LINE
  5
2883C
  8
寸法
 62
     2
 10
47.6079965496667725
 20
51.8789465900678266
 30
0.0
 11
45.7621347283869113
 21
51.8789465900678266
 31
0.0
  0
LINE
  5
2883D
  8
寸法
 62
     2
 10
45.7621347283869113
 20
57.478946590067828
 30
0.0
 11
45.7621347283869113
 21
52.2789465900678323
 31
0.0
  0
INSERT
  5
2883E
  8
寸法
 62
     2
  2
_DOT
 10
45.7621347283869113
 20
57.8789465900678266
 30
0.0
 41
0.4
 42
0.4
 43
0.4
 50
90.0
  0
INSERT
  5
2883F
  8
寸法
 62
     2
  2
_DOT
 10
45.7621347283869113
 20
51.8789465900678266
 30
0.0
 41
0.4
 42
0.4
 43
0.4
 50
270.0
  0
INSERT
  5
28840
  8
寸法
  2
*U70
 10
0.0
 20
0.0
 30
0.0
  0
POINT
  5
28841
  8
DEFPOINTS
 62
     0
 10
49.6079965496667796
 20
57.8789465900678408
 30
0.0
  0
POINT
  5
28842
  8
DEFPOINTS
 62
     0
 10
49.6079965496667796
 20
51.8789465900678408
 30
0.0
  0
POINT
  5
28843
  8
DEFPOINTS
 62
     0
 10
45.7621347283869113
 20
51.8789465900678266
 30
0.0
  0
ENDBLK
  5
281F5
  8
0
  0
BLOCK
  8
0
  2
*D38
 70
     1
 10
0.0
 20
0.0
 30
0.0
  3
*D38
  1

  0
LINE
  5
28844
  8
寸法
 62
     2
 10
95.2851498580700706
 20
37.0517309426685983
 30
0.0
 11
95.2851498580700706
 21
33.7608141834818412
 31
0.0
  0
LINE
  5
28845
  8
寸法
 62
     2
 10
95.9851498580701161
 20
37.0517309426685983
 30
0.0
 11
95.9851498580701161
 21
33.7608141834818412
 31
0.0
  0
LINE
  5
28846
  8
寸法
 62
     2
 10
94.885149858070065
 20
33.7608141834818412
 30
0.0
 11
94.4851498580700593
 21
33.7608141834818412
 31
0.0
  0
LINE
  5
28847
  8
寸法
 62
     2
 10
96.385149858070136
 20
33.7608141834818412
 30
0.0
 11
99.6351498580701076
 21
33.7608141834818412
 31
0.0
  0
INSERT
  5
28848
  8
寸法
 62
     2
  2
_DOT
 10
95.2851498580700706
 20
33.7608141834818412
 30
0.0
 41
0.4
 42
0.4
 43
0.4
  0
INSERT
  5
28849
  8
寸法
 62
     2
  2
_DOT
 10
95.9851498580701161
 20
33.7608141834818412
 30
0.0
 41
0.4
 42
0.4
 43
0.4
 50
180.0
  0
INSERT
  5
2884A
  8
寸法
  2
*U71
 10
0.0
 20
0.0
 30
0.0
  0
POINT
  5
2884B
  8
DEFPOINTS
 62
     0
 10
95.2851498580700706
 20
39.0517309426685983
 30
0.0
  0
POINT
  5
2884C
  8
DEFPOINTS
 62
     0
 10
95.9851498580701161
 20
39.0517309426685983
 30
0.0
  0
POINT
  5
2884D
  8
DEFPOINTS
 62
     0
 10
95.9851498580701161
 20
33.7608141834818412
 30
0.0
  0
ENDBLK
  5
28201
  8
0
  0
BLOCK
  8
0
  2
*D39
 70
     1
 10
0.0
 20
0.0
 30
0.0
  3
*D39
  1

  0
LINE
  5
2884E
  8
寸法
 62
     2
 10
51.2851498580700778
 20
37.0517309426685983
 30
0.0
 11
51.2851498580700778
 21
33.7608141834818412
 31
0.0
  0
LINE
  5
2884F
  8
寸法
 62
     2
 10
50.5851498580700323
 20
37.0517309426685983
 30
0.0
 11
50.5851498580700323
 21
33.7608141834818412
 31
0.0
  0
LINE
  5
28850
  8
寸法
 62
     2
 10
51.6851498580700692
 20
33.7608141834818412
 30
0.0
 11
52.0851498580700678
 21
33.7608141834818412
 31
0.0
  0
LINE
  5
28851
  8
寸法
 62
     2
 10
50.1851498580700266
 20
33.7608141834818412
 30
0.0
 11
46.9351498580700195
 21
33.7608141834818412
 31
0.0
  0
INSERT
  5
28852
  8
寸法
 62
     2
  2
_DOT
 10
51.2851498580700778
 20
33.7608141834818412
 30
0.0
 41
0.4
 42
0.4
 43
0.4
 50
180.0
  0
INSERT
  5
28853
  8
寸法
 62
     2
  2
_DOT
 10
50.5851498580700323
 20
33.7608141834818412
 30
0.0
 41
0.4
 42
0.4
 43
0.4
  0
INSERT
  5
28854
  8
寸法
  2
*U72
 10
0.0
 20
0.0
 30
0.0
  0
POINT
  5
28855
  8
DEFPOINTS
 62
     0
 10
51.2851498580700778
 20
39.0517309426685983
 30
0.0
  0
POINT
  5
28856
  8
DEFPOINTS
 62
     0
 10
50.5851498580700323
 20
39.0517309426685983
 30
0.0
  0
POINT
  5
28857
  8
DEFPOINTS
 62
     0
 10
50.5851498580700323
 20
33.7608141834818412
 30
0.0
  0
ENDBLK
  5
2821A
  8
0
  0
BLOCK
  8
0
  2
*D40
 70
     1
 10
0.0
 20
0.0
 30
0.0
  3
*D40
  1

  0
LINE
  5
28858
  8
寸法
 62
     2
 10
51.2851498580700778
 20
37.0517309426685983
 30
0.0
 11
51.2851498580700778
 21
33.7608141834818412
 31
0.0
  0
LINE
  5
28859
  8
寸法
 62
     2
 10
95.2851498580700706
 20
37.0517309426685983
 30
0.0
 11
95.2851498580700706
 21
33.7608141834818412
 31
0.0
  0
LINE
  5
2885A
  8
寸法
 62
     2
 10
51.6851498580700692
 20
33.7608141834818412
 30
0.0
 11
94.885149858070065
 21
33.7608141834818412
 31
0.0
  0
INSERT
  5
2885B
  8
寸法
 62
     2
  2
_DOT
 10
51.2851498580700778
 20
33.7608141834818412
 30
0.0
 41
0.4
 42
0.4
 43
0.4
 50
180.0
  0
INSERT
  5
2885C
  8
寸法
 62
     2
  2
_DOT
 10
95.2851498580700706
 20
33.7608141834818412
 30
0.0
 41
0.4
 42
0.4
 43
0.4
  0
INSERT
  5
2885D
  8
寸法
  2
*U73
 10
0.0
 20
0.0
 30
0.0
  0
POINT
  5
2885E
  8
DEFPOINTS
 62
     0
 10
51.2851498580700778
 20
39.0517309426685983
 30
0.0
  0
POINT
  5
2885F
  8
DEFPOINTS
 62
     0
 10
95.2851498580700706
 20
39.0517309426685983
 30
0.0
  0
POINT
  5
28860
  8
DEFPOINTS
 62
     0
 10
95.2851498580700706
 20
33.7608141834818412
 30
0.0
  0
ENDBLK
  5
28227
  8
0
  0
BLOCK
  8
0
  2
*D41
 70
     1
 10
0.0
 20
0.0
 30
0.0
  3
*D41
  1

  0
LINE
  5
28861
  8
寸法
 62
     2
 10
49.2851498580700991
 20
95.8789465900679545
 30
0.0
 11
45.7621347283867621
 21
95.8789465900679545
 31
0.0
  0
LINE
  5
28862
  8
寸法
 62
     2
 10
49.2851498580700991
 20
90.6789465900679374
 30
0.0
 11
45.7621347283867621
 21
90.6789465900679374
 31
0.0
  0
LINE
  5
28863
  8
寸法
 62
     2
 10
45.7621347283867621
 20
95.4789465900679488
 30
0.0
 11
45.7621347283867621
 21
91.0789465900679431
 31
0.0
  0
INSERT
  5
28864
  8
寸法
 62
     2
  2
_DOT
 10
45.7621347283867621
 20
95.8789465900679545
 30
0.0
 41
0.4
 42
0.4
 43
0.4
 50
90.0
  0
INSERT
  5
28865
  8
寸法
 62
     2
  2
_DOT
 10
45.7621347283867621
 20
90.6789465900679374
 30
0.0
 41
0.4
 42
0.4
 43
0.4
 50
270.0
  0
INSERT
  5
28866
  8
寸法
  2
*U74
 10
0.0
 20
0.0
 30
0.0
  0
POINT
  5
28867
  8
DEFPOINTS
 62
     0
 10
51.2851498580701133
 20
95.8789465900679545
 30
0.0
  0
POINT
  5
28868
  8
DEFPOINTS
 62
     0
 10
51.2851498580701133
 20
90.6789465900679374
 30
0.0
  0
POINT
  5
28869
  8
DEFPOINTS
 62
     0
 10
45.7621347283867621
 20
90.6789465900679374
 30
0.0
  0
ENDBLK
  5
2831F
  8
0
  0
BLOCK
  8
0
  2
*D42
 70
     1
 10
0.0
 20
0.0
 30
0.0
  3
*D42
  1

  0
LINE
  5
2886A
  8
寸法
 62
     2
 10
206.748489734305906
 20
168.2820122932926097
 30
0.0
 11
196.1199970238212984
 21
168.2820122932926097
 31
0.0
  0
LINE
  5
2886B
  8
寸法
 62
     2
 10
206.7484897343057924
 20
50.1863813862871879
 30
0.0
 11
196.1199970238214121
 21
50.1863813862871879
 31
0.0
  0
LINE
  5
2886C
  8
寸法
 62
     2
 10
196.1199970238212984
 20
167.882012293292604
 30
0.0
 11
196.1199970238214121
 21
50.5863813862871865
 31
0.0
  0
INSERT
  5
2886D
  8
寸法
 62
     2
  2
_DOT
 10
196.1199970238212984
 20
168.2820122932926097
 30
0.0
 41
0.4
 42
0.4
 43
0.4
 50
90.0
  0
INSERT
  5
2886E
  8
寸法
 62
     2
  2
_DOT
 10
196.1199970238214121
 20
50.1863813862871879
 30
0.0
 41
0.4
 42
0.4
 43
0.4
 50
270.0
  0
INSERT
  5
2886F
  8
寸法
  2
*U75
 10
0.0
 20
0.0
 30
0.0
  0
POINT
  5
28870
  8
DEFPOINTS
 62
     0
 10
208.748489734305906
 20
168.2820122932926097
 30
0.0
  0
POINT
  5
28871
  8
DEFPOINTS
 62
     0
 10
208.7484897343057924
 20
50.1863813862872021
 30
0.0
  0
POINT
  5
28872
  8
DEFPOINTS
 62
     0
 10
196.1199970238214121
 20
50.1863813862871879
 30
0.0
  0
ENDBLK
  5
2841D
  8
0
  0
BLOCK
  8
0
  2
*D43
 70
     1
 10
0.0
 20
0.0
 30
0.0
  3
*D43
  1

  0
LINE
  5
28873
  8
寸法
 62
     2
 10
49.2851498580700991
 20
108.0789465900679005
 30
0.0
 11
38.8361657729445326
 21
108.0789465900679005
 31
0.0
  0
LINE
  5
28874
  8
寸法
 62
     2
 10
49.2851498580700991
 20
48.0789465900679289
 30
0.0
 11
38.8361657729445398
 21
48.0789465900679218
 31
0.0
  0
LINE
  5
28875
  8
寸法
 62
     2
 10
38.8361657729445326
 20
107.6789465900678948
 30
0.0
 11
38.8361657729445398
 21
48.4789465900679204
 31
0.0
  0
INSERT
  5
28876
  8
寸法
 62
     2
  2
_DOT
 10
38.8361657729445326
 20
108.0789465900679005
 30
0.0
 41
0.4
 42
0.4
 43
0.4
 50
90.0
  0
INSERT
  5
28877
  8
寸法
 62
     2
  2
_DOT
 10
38.8361657729445398
 20
48.0789465900679218
 30
0.0
 41
0.4
 42
0.4
 43
0.4
 50
270.0
  0
INSERT
  5
28878
  8
寸法
  2
*U76
 10
0.0
 20
0.0
 30
0.0
  0
POINT
  5
28879
  8
DEFPOINTS
 62
     0
 10
51.2851498580701133
 20
108.0789465900679005
 30
0.0
  0
POINT
  5
2887A
  8
DEFPOINTS
 62
     0
 10
51.2851498580701133
 20
48.0789465900679289
 30
0.0
  0
POINT
  5
2887B
  8
DEFPOINTS
 62
     0
 10
38.8361657729445398
 20
48.0789465900679218
 30
0.0
  0
ENDBLK
  5
284E7
  8
0
  0
BLOCK
  8
0
  2
*U44
 70
     1
 10
0.0
 20
0.0
 30
0.0
  3
*U44
  1

  0
TEXT
  5
28D82
  8
寸法
 62
     2
 10
45.1371347283867976
 20
100.453946590067801
 30
0.0
 40
1.5
  1
120
 50
90.0
  0
ENDBLK
  5
28D84
  8
0
  0
BLOCK
  8
0
  2
*U45
 70
     1
 10
0.0
 20
0.0
 30
0.0
  3
*U45
  1

  0
TEXT
  5
28D86
  8
寸法
 62
     2
 10
45.0533771147763602
 20
95.478946590067892
 30
0.0
 40
1.5
  1
2
 50
90.0
  0
ENDBLK
  5
28D88
  8
0
  0
BLOCK
  8
0
  2
*U46
 70
     1
 10
0.0
 20
0.0
 30
0.0
  3
*U46
  1

  0
TEXT
  5
28D8A
  8
寸法
 62
     2
 10
203.1808464059766095
 20
145.6803956393657984
 30
0.0
 40
2.399999999999999
  1
120
 50
90.0
  0
ENDBLK
  5
28D8C
  8
0
  0
BLOCK
  8
0
  2
*U47
 70
     1
 10
0.0
 20
0.0
 30
0.0
  3
*U47
  1

  0
TEXT
  5
28D8E
  8
寸法
 62
     2
 10
200.2511255656652054
 20
124.5885209118720951
 30
0.0
 40
2.399999999999999
  1
2
 50
90.0
  0
ENDBLK
  5
28D90
  8
0
  0
BLOCK
  8
0
  2
*U48
 70
     1
 10
0.0
 20
0.0
 30
0.0
  3
*U48
  1

  0
TEXT
  5
28D92
  8
寸法
 62
     2
 10
209.6657857355685906
 20
175.2030922628383962
 30
0.0
 40
2.399999999999999
  1
15
  0
ENDBLK
  5
28D94
  8
0
  0
BLOCK
  8
0
  2
*U49
 70
     1
 10
0.0
 20
0.0
 30
0.0
  3
*U49
  1

  0
TEXT
  5
28D96
  8
寸法
 62
     2
 10
204.0746576958360095
 20
71.1015925553516439
 30
0.0
 40
2.399999999999999
  1
60
 50
90.0
  0
ENDBLK
  5
28D98
  8
0
  0
BLOCK
  8
0
  2
*U50
 70
     1
 10
0.0
 20
0.0
 30
0.0
  3
*U50
  1

  0
TEXT
  5
28D9A
  8
寸法
 62
     2
 10
204.0746576958364074
 20
54.5195094124409607
 30
0.0
 40
2.399999999999999
  1
38
 50
90.0
  0
ENDBLK
  5
28D9C
  8
0
  0
BLOCK
  8
0
  2
*U51
 70
     1
 10
0.0
 20
0.0
 30
0.0
  3
*U51
  1

  0
TEXT
  5
28D9E
  8
寸法
 62
     2
 10
113.9405135448104005
 20
60.731903442816801
 30
0.0
 40
2.399999999999999
  1
60
 50
90.0
  0
ENDBLK
  5
28DA0
  8
0
  0
BLOCK
  8
0
  2
*U52
 70
     1
 10
0.0
 20
0.0
 30
0.0
  3
*U52
  1

  0
TEXT
  5
28DA2
  8
寸法
 62
     2
 10
145.4561676323606036
 20
43.2609153650210772
 30
0.0
 40
2.399999999999999
  1
170
  0
ENDBLK
  5
28DA4
  8
0
  0
BLOCK
  8
0
  2
*U53
 70
     1
 10
0.0
 20
0.0
 30
0.0
  3
*U53
  1

  0
TEXT
  5
28DA6
  8
寸法
 62
     2
 10
204.0746576958351
 20
116.9471325252397946
 30
0.0
 40
2.399999999999999
  1
52
 50
90.0
  0
ENDBLK
  5
28DA8
  8
0
  0
BLOCK
  8
0
  2
*U54
 70
     1
 10
0.0
 20
0.0
 30
0.0
  3
*U54
  1

  0
TEXT
  5
28DAA
  8
寸法
 62
     2
 10
204.0746576958352989
 20
98.4785056901956466
 30
0.0
 40
2.399999999999999
  1
60
 50
90.0
  0
ENDBLK
  5
28DAC
  8
0
  0
BLOCK
  8
0
  2
*U55
 70
     1
 10
0.0
 20
0.0
 30
0.0
  3
*U55
  1

  0
TEXT
  5
28DAE
  8
寸法
 62
     2
 10
204.0746576958356115
 20
84.6145266811520713
 30
0.0
 40
2.399999999999999
  1
22
 50
90.0
  0
ENDBLK
  5
28DB0
  8
0
  0
BLOCK
  8
0
  2
*U56
 70
     1
 10
0.0
 20
0.0
 30
0.0
  3
*U56
  1

  0
TEXT
  5
28DB2
  8
寸法
 62
     2
 10
52.6851498580700905
 20
39.2097234785706092
 30
0.0
 40
1.8
  1
58
  0
ENDBLK
  5
28DB4
  8
0
  0
BLOCK
  8
0
  2
*U57
 70
     1
 10
0.0
 20
0.0
 30
0.0
  3
*U57
  1

  0
TEXT
  5
28DB6
  8
寸法
 62
     2
 10
63.6351498580700721
 20
39.2097234785706092
 30
0.0
 40
1.8
  1
170
  0
ENDBLK
  5
28DB8
  8
0
  0
BLOCK
  8
0
  2
*U58
 70
     1
 10
0.0
 20
0.0
 30
0.0
  3
*U58
  1

  0
TEXT
  5
28DBA
  8
寸法
 62
     2
 10
73.7851498580700849
 20
39.1517779652176685
 30
0.0
 40
1.8
  1
18
  0
ENDBLK
  5
28DBC
  8
0
  0
BLOCK
  8
0
  2
*U59
 70
     1
 10
0.0
 20
0.0
 30
0.0
  3
*U59
  1

  0
TEXT
  5
28DBE
  8
寸法
 62
     2
 10
82.4351498580700763
 20
39.2097234785706092
 30
0.0
 40
1.8
  1
170
  0
ENDBLK
  5
28DC0
  8
0
  0
BLOCK
  8
0
  2
*U60
 70
     1
 10
0.0
 20
0.0
 30
0.0
  3
*U60
  1

  0
TEXT
  5
28DC2
  8
本体1
 62
     2
 10
92.5851498580700962
 20
39.2097234785706092
 30
0.0
 40
1.8
  1
24
  0
ENDBLK
  5
28DC4
  8
0
  0
BLOCK
  8
0
  2
*U61
 70
     1
 10
0.0
 20
0.0
 30
0.0
  3
*U61
  1

  0
TEXT
  5
28DC6
  8
寸法
 62
     2
 10
45.1371347283868189
 20
86.5539465900678806
 30
0.0
 40
1.5
  1
60
 50
90.0
  0
ENDBLK
  5
28DC8
  8
0
  0
BLOCK
  8
0
  2
*U62
 70
     1
 10
0.0
 20
0.0
 30
0.0
  3
*U62
  1

  0
TEXT
  5
28DCA
  8
寸法
 62
     2
 10
45.13713472838689
 20
82.3289465900678863
 30
0.0
 40
1.5
  1
22
 50
90.0
  0
ENDBLK
  5
28DCC
  8
0
  0
BLOCK
  8
0
  2
*U63
 70
     1
 10
0.0
 20
0.0
 30
0.0
  3
*U63
  1

  0
TEXT
  5
28DCE
  8
寸法
 62
     2
 10
45.1371347283869824
 20
48.7289465900678564
 30
0.0
 40
1.5
  1
38
 50
90.0
  0
ENDBLK
  5
28DD0
  8
0
  0
BLOCK
  8
0
  2
*U64
 70
     1
 10
0.0
 20
0.0
 30
0.0
  3
*U64
  1

  0
TEXT
  5
28DD2
  8
寸法
 62
     2
 10
45.1371347283868687
 20
78.353946590067892
 30
0.0
 40
1.5
  1
60
 50
90.0
  0
ENDBLK
  5
28DD4
  8
0
  0
BLOCK
  8
0
  2
*U65
 70
     1
 10
0.0
 20
0.0
 30
0.0
  3
*U65
  1

  0
TEXT
  5
28DD6
  8
寸法
 62
     2
 10
45.1371347283869113
 20
74.1289465900678692
 30
0.0
 40
1.5
  1
22
 50
90.0
  0
ENDBLK
  5
28DD8
  8
0
  0
BLOCK
  8
0
  2
*U66
 70
     1
 10
0.0
 20
0.0
 30
0.0
  3
*U66
  1

  0
TEXT
  5
28DDA
  8
寸法
 62
     2
 10
45.1371347283868687
 20
70.1539465900678465
 30
0.0
 40
1.5
  1
60
 50
90.0
  0
ENDBLK
  5
28DDC
  8
0
  0
BLOCK
  8
0
  2
*U67
 70
     1
 10
0.0
 20
0.0
 30
0.0
  3
*U67
  1

  0
TEXT
  5
28DDE
  8
寸法
 62
     2
 10
45.13713472838689
 20
65.9289465900678522
 30
0.0
 40
1.5
  1
22
 50
90.0
  0
ENDBLK
  5
28DE0
  8
0
  0
BLOCK
  8
0
  2
*U68
 70
     1
 10
0.0
 20
0.0
 30
0.0
  3
*U68
  1

  0
TEXT
  5
28DE2
  8
寸法
 62
     2
 10
45.1371347283868971
 20
61.9539465900678579
 30
0.0
 40
1.5
  1
60
 50
90.0
  0
ENDBLK
  5
28DE4
  8
0
  0
BLOCK
  8
0
  2
*U69
 70
     1
 10
0.0
 20
0.0
 30
0.0
  3
*U69
  1

  0
TEXT
  5
28DE6
  8
寸法
 62
     2
 10
45.1371347283869397
 20
57.7289465900678564
 30
0.0
 40
1.5
  1
22
 50
90.0
  0
ENDBLK
  5
28DE8
  8
0
  0
BLOCK
  8
0
  2
*U70
 70
     1
 10
0.0
 20
0.0
 30
0.0
  3
*U70
  1

  0
TEXT
  5
28DEA
  8
寸法
 62
     2
 10
45.1371347283869184
 20
53.7539465900678124
 30
0.0
 40
1.5
  1
60
 50
90.0
  0
ENDBLK
  5
28DEC
  8
0
  0
BLOCK
  8
0
  2
*U71
 70
     1
 10
0.0
 20
0.0
 30
0.0
  3
*U71
  1

  0
TEXT
  5
28DEE
  8
寸法
 62
     2
 10
97.4101498580701133
 20
30.735814183481839
 30
0.0
 40
2.399999999999999
  1
7
  0
ENDBLK
  5
28DF0
  8
0
  0
BLOCK
  8
0
  2
*U72
 70
     1
 10
0.0
 20
0.0
 30
0.0
  3
*U72
  1

  0
TEXT
  5
28DF2
  8
寸法
 62
     2
 10
47.5601498580700266
 20
30.735814183481839
 30
0.0
 40
2.399999999999999
  1
7
  0
ENDBLK
  5
28DF4
  8
0
  0
BLOCK
  8
0
  2
*U73
 70
     1
 10
0.0
 20
0.0
 30
0.0
  3
*U73
  1

  0
TEXT
  5
28DF6
  8
寸法
 62
     2
 10
70.2851498580700706
 20
30.735814183481839
 30
0.0
 40
2.399999999999999
  1
440
  0
ENDBLK
  5
28DF8
  8
0
  0
BLOCK
  8
0
  2
*U74
 70
     1
 10
0.0
 20
0.0
 30
0.0
  3
*U74
  1

  0
TEXT
  5
28DFA
  8
寸法
 62
     2
 10
45.1371347283867905
 20
91.7910258972788142
 30
0.0
 40
1.5
  1
52
 50
90.0
  0
ENDBLK
  5
28DFC
  8
0
  0
BLOCK
  8
0
  2
*U75
 70
     1
 10
0.0
 20
0.0
 30
0.0
  3
*U75
  1

  0
TEXT
  5
28DFE
  8
寸法
 62
     2
 10
195.4949970238212984
 20
106.4341968397898057
 30
0.0
 40
2.399999999999999
  1
600
 50
90.0
  0
ENDBLK
  5
28E00
  8
0
  0
BLOCK
  8
0
  2
*U76
 70
     1
 10
0.0
 20
0.0
 30
0.0
  3
*U76
  1

  0
TEXT
  5
28E02
  8
寸法
 62
     2
 10
38.2111657729445469
 20
75.2789465900679033
 30
0.0
 40
2.399999999999999
  1
600
 50
90.0
  0
ENDBLK
  5
28E04
  8
0
  0
BLOCK
  8
0
  2
*U77
 70
     1
 10
0.0
 20
0.0
 30
0.0
  3
*U77
  1

  0
TEXT
  5
28E06
  8
寸法
 62
     2
 10
32.8688209152431483
 20
156.6844596268796863
 30
0.0
 40
2.399999999999999
  1
7
  7
角ゴ
  0
ENDBLK
  5
28E08
  8
0
  0
BLOCK
  8
0
  2
*U78
 70
     1
 10
0.0
 20
0.0
 30
0.0
  3
*U78
  1

  0
TEXT
  5
28E0A
  8
寸法
 62
     2
 10
24.3188374881717806
 20
164.163160593031705
 30
0.0
 40
2.399999999999999
  1
15
 50
90.0
  7
角ゴ
  0
ENDBLK
  5
28E0C
  8
0
  0
BLOCK
  8
0
  2
*U79
 70
     1
 10
0.0
 20
0.0
 30
0.0
  3
*U79
  1

  0
TEXT
  5
28E0E
  8
寸法
 62
     2
 10
110.7688224881665064
 20
156.6844596268796863
 30
0.0
 40
2.399999999999999
  1
7
  7
角ゴ
  0
ENDBLK
  5
28E10
  8
0
  0
BLOCK
  8
0
  2
*U80
 70
     1
 10
0.0
 20
0.0
 30
0.0
  3
*U80
  1

  0
TEXT
  5
28E12
  8
寸法
 62
     2
 10
69.6188059152435699
 20
156.6844596268796863
 30
0.0
 40
2.399999999999999
  1
440
  7
角ゴ
  0
ENDBLK
  5
28E14
  8
0
  0
BLOCK
  8
0
  2
*U81
 70
     1
 10
0.0
 20
0.0
 30
0.0
  3
*U81
  1

  0
TEXT
  5
28E16
  8
寸法
 62
     2
 10
69.4188374881654653
 20
152.3027469316265865
 30
0.0
 40
2.399999999999999
  1
454
  7
角ゴ
  0
ENDBLK
  5
28E18
  8
0
  0
ENDSEC
  0
SECTION
  2
ENTITIES
  0
LINE
  5
15820
  8
枠横ライン
 10
14.7987426777166799
 20
15.3305369511122098
 30
0.0
 11
295.0228807956193009
 21
15.3301369511121894
 31
0.0
  0
LINE
  5
15821
  8
枠横ライン
 10
295.0228745700866284
 20
28.0119016089223614
 30
0.0
 11
14.7987364521840092
 21
28.0123016089223711
 31
0.0
  0
LINE
  5
15822
  8
枠ライン
 10
209.3041877312406882
 20
21.6713209148830401
 30
0.0
 11
152.6201674842826037
 21
21.6713209148830401
 31
0.0
  0
TEXT
  5
15823
  8
枠文字
 10
87.2743690127162637
 20
17.966599234274149
 30
0.0
 40
1.686729999999999
  1
図
 72
     1
 11
88.0615096793829366
 21
17.966599234274149
 31
0.0
  0
LINE
  5
15824
  8
枠ライン
 10
86.5615096793830503
 20
15.3309369511210303
 30
0.0
 11
86.5615096793830503
 21
28.0121991726744284
 31
0.0
  0
LINE
  5
15825
  8
枠ライン
 10
86.5615096793830503
 20
28.0121991726744284
 30
0.0
 11
86.5615096793830503
 21
15.3309369511210303
 31
0.0
  0
LINE
  5
15826
  8
枠ライン
 10
86.5615096793830503
 20
15.3305369511210792
 30
0.0
 11
86.5615096793830503
 21
28.0121991726744284
 31
0.0
  0
LINE
  5
15827
  8
枠ライン
 10
86.5615096793830503
 20
28.0121991726744284
 30
0.0
 11
86.5615096793830503
 21
15.3305369511210792
 31
0.0
  0
LINE
  5
15828
  8
枠ライン
 10
89.5616096793829684
 20
15.3305369511210792
 30
0.0
 11
89.5616096793829684
 21
28.012194890245329
 31
0.0
  0
LINE
  5
15829
  8
枠ライン
 10
89.5616096793829684
 20
28.012194890245329
 30
0.0
 11
89.5616096793829684
 21
15.3305369511210792
 31
0.0
  0
LINE
  5
1582A
  8
枠ライン
 10
76.5613696793829348
 20
15.3309369511210303
 30
0.0
 11
76.5613696793829348
 21
28.0122134471620789
 31
0.0
  0
LINE
  5
1582B
  8
枠ライン
 10
14.7987403407636204
 20
19.5579991726688682
 30
0.0
 11
86.5615135679625638
 21
19.5579991726688682
 31
0.0
  0
ARC
  5
1582C
  8
枠文字
 10
24.2745759293414416
 20
17.7291794169491403
 30
0.0
 40
0.150643
 50
268.8480000000012069
 51
315.1879999999977144
  0
ARC
  5
1582D
  8
枠文字
 10
24.2687759293414693
 20
17.7355794169491183
 30
0.0
 40
0.157019
 50
225.791000000002299
 51
271.0310000000009154
  0
LINE
  5
1582E
  8
枠文字
 10
24.2715759293414592
 20
17.8917794169491309
 30
0.0
 11
24.3814759293414305
 21
17.8452794169491007
 31
0.0
  0
ARC
  5
1582F
  8
枠文字
 10
24.2644759293415291
 20
17.7387794169491109
 30
0.0
 40
0.149708
 50
134.6539999999995132
 51
181.4349999999990075
  0
LINE
  5
15830
  8
枠文字
 10
24.159275929341451
 20
17.8452794169491007
 30
0.0
 11
24.2715759293414592
 21
17.8917794169491309
 31
0.0
  0
ARC
  5
15831
  8
枠文字
 10
24.2806759293414416
 20
17.7375794169491314
 30
0.0
 40
0.147524
 50
359.0109999999996262
 51
46.8889999999994913
  0
ARC
  5
15832
  8
枠文字
 10
24.2746759293414698
 20
17.7332794169491308
 30
0.0
 40
0.153466
 50
314.0869999999977722
 51
0.6479999999990314
  0
ARC
  5
15833
  8
枠文字
 10
24.2713759293414384
 20
17.7323794169491293
 30
0.0
 40
0.156603
 50
179.0289999999995132
 51
224.2689999999996076
  0
ARC
  5
15834
  8
枠文字
 10
24.2812759293414615
 20
16.9005794169491388
 30
0.0
 40
0.146891
 50
313.0020000000012033
 51
1.0990000000005899
  0
ARC
  5
15835
  8
枠文字
 10
24.2657759293415509
 20
16.9001794169491291
 30
0.0
 40
0.151049
 50
178.7850000000007071
 51
225.1259999999996069
  0
ARC
  5
15836
  8
枠文字
 10
24.2743759293415415
 20
16.892979416949121
 30
0.0
 40
0.14642
 50
268.8890000000005216
 51
316.9869999999978063
  0
ARC
  5
15837
  8
枠文字
 10
24.2694759293414712
 20
16.9003794169491286
 30
0.0
 40
0.153785
 50
224.2250000000005912
 51
270.7849999999988881
  0
LINE
  5
15838
  8
枠文字
 10
24.159275929341451
 20
17.0132794169491
 30
0.0
 11
24.2715759293414592
 21
17.0597794169491408
 31
0.0
  0
LINE
  5
15839
  8
枠文字
 10
24.2715759293414592
 20
17.0597794169491408
 30
0.0
 11
24.3814759293414305
 21
17.0132794169491
 31
0.0
  0
ARC
  5
1583A
  8
枠文字
 10
24.264075929341459
 20
16.906979416949131
 30
0.0
 40
0.149305
 50
134.592000000000894
 51
181.3719999999991899
  0
ARC
  5
1583B
  8
枠文字
 10
24.2816759293414783
 20
16.9059794169490907
 30
0.0
 40
0.146502
 50
358.9650000000006003
 51
47.0629999999990289
  0
LINE
  5
1583C
  8
枠ライン
 10
14.7987403407636204
 20
23.785099172668879
 30
0.0
 11
86.5615135679625638
 21
23.785099172668879
 31
0.0
  0
ARC
  5
1583D
  8
枠文字
 10
24.2713759293414384
 20
21.9598416384969291
 30
0.0
 40
0.156603
 50
179.0289999999995132
 51
224.2689999999996076
  0
ARC
  5
1583E
  8
枠文字
 10
24.2687759293414693
 20
21.9630416384969216
 30
0.0
 40
0.157019
 50
225.791000000002299
 51
271.0310000000009154
  0
ARC
  5
1583F
  8
枠文字
 10
24.2745759293414416
 20
21.9566416384969294
 30
0.0
 40
0.150643
 50
268.8480000000012069
 51
315.1879999999977144
  0
ARC
  5
15840
  8
枠文字
 10
24.2746759293414698
 20
21.9607416384969305
 30
0.0
 40
0.153466
 50
314.0869999999977722
 51
0.6479999999990314
  0
ARC
  5
15841
  8
枠文字
 10
24.2806759293414416
 20
21.9650416384969311
 30
0.0
 40
0.147524
 50
359.0109999999996262
 51
46.8889999999994913
  0
LINE
  5
15842
  8
枠文字
 10
24.159275929341451
 20
22.0727416384968897
 30
0.0
 11
24.2715759293414592
 21
22.1192416384969306
 31
0.0
  0
ARC
  5
15843
  8
枠文字
 10
24.2644759293415291
 20
21.9662416384969106
 30
0.0
 40
0.149708
 50
134.6539999999995132
 51
181.4349999999990075
  0
LINE
  5
15844
  8
枠文字
 10
24.2715759293414592
 20
22.1192416384969306
 30
0.0
 11
24.3814759293414305
 21
22.0727416384968897
 31
0.0
  0
ARC
  5
15845
  8
枠文字
 10
24.2816759293414783
 20
21.1334416384968904
 30
0.0
 40
0.146502
 50
358.9650000000006003
 51
47.0629999999990289
  0
ARC
  5
15846
  8
枠文字
 10
24.264075929341459
 20
21.13444163849692
 30
0.0
 40
0.149305
 50
134.592000000000894
 51
181.3719999999991899
  0
ARC
  5
15847
  8
枠文字
 10
24.2657759293415509
 20
21.1276416384969217
 30
0.0
 40
0.151049
 50
178.7850000000007071
 51
225.1259999999996069
  0
ARC
  5
15848
  8
枠文字
 10
24.2694759293414712
 20
21.1278416384969283
 30
0.0
 40
0.153785
 50
224.2250000000005912
 51
270.7849999999988881
  0
ARC
  5
15849
  8
枠文字
 10
24.2743759293415415
 20
21.1204416384969207
 30
0.0
 40
0.14642
 50
268.8890000000005216
 51
316.9869999999978063
  0
ARC
  5
1584A
  8
枠文字
 10
24.2812759293414615
 20
21.1280416384969385
 30
0.0
 40
0.146891
 50
313.0020000000012033
 51
1.0990000000005899
  0
LINE
  5
1584B
  8
枠文字
 10
24.2715759293414592
 20
21.2872416384969405
 30
0.0
 11
24.3814759293414305
 21
21.2407416384968997
 31
0.0
  0
LINE
  5
1584C
  8
枠文字
 10
24.159275929341451
 20
21.2407416384968997
 30
0.0
 11
24.2715759293414592
 21
21.2872416384969405
 31
0.0
  0
LINE
  5
1584D
  8
枠文字
 10
24.159275929341451
 20
25.4678416384969104
 30
0.0
 11
24.2715759293414592
 21
25.5143416384969512
 31
0.0
  0
LINE
  5
1584E
  8
枠文字
 10
24.2715759293414592
 20
25.5143416384969512
 30
0.0
 11
24.3814759293414305
 21
25.4678416384969104
 31
0.0
  0
ARC
  5
1584F
  8
枠文字
 10
24.2812759293414615
 20
25.3551416384969599
 30
0.0
 40
0.146891
 50
313.0020000000012033
 51
1.0990000000005899
  0
ARC
  5
15850
  8
枠文字
 10
24.2743759293415415
 20
25.3475416384969208
 30
0.0
 40
0.14642
 50
268.8890000000005216
 51
316.9869999999978063
  0
ARC
  5
15851
  8
枠文字
 10
24.2694759293414712
 20
25.3549416384969497
 30
0.0
 40
0.153785
 50
224.2250000000005912
 51
270.7849999999988881
  0
ARC
  5
15852
  8
枠文字
 10
24.2657759293415509
 20
25.3547416384969395
 30
0.0
 40
0.151049
 50
178.7850000000007071
 51
225.1259999999996069
  0
ARC
  5
15853
  8
枠文字
 10
24.264075929341459
 20
25.3615416384969308
 30
0.0
 40
0.149305
 50
134.592000000000894
 51
181.3719999999991899
  0
ARC
  5
15854
  8
枠文字
 10
24.2816759293414783
 20
25.3605416384969011
 30
0.0
 40
0.146502
 50
358.9650000000006003
 51
47.0629999999990289
  0
LINE
  5
15855
  8
枠文字
 10
24.2715759293414592
 20
26.3463416384969484
 30
0.0
 11
24.3814759293414305
 21
26.2998416384969005
 31
0.0
  0
ARC
  5
15856
  8
枠文字
 10
24.2644759293415291
 20
26.1933416384969284
 30
0.0
 40
0.149708
 50
134.6539999999995132
 51
181.4349999999990075
  0
LINE
  5
15857
  8
枠文字
 10
24.159275929341451
 20
26.2998416384969005
 30
0.0
 11
24.2715759293414592
 21
26.3463416384969484
 31
0.0
  0
ARC
  5
15858
  8
枠文字
 10
24.2806759293414416
 20
26.1921416384969383
 30
0.0
 40
0.147524
 50
359.0109999999996262
 51
46.8889999999994913
  0
ARC
  5
15859
  8
枠文字
 10
24.2746759293414698
 20
26.1878416384969412
 30
0.0
 40
0.153466
 50
314.0869999999977722
 51
0.6479999999990314
  0
ARC
  5
1585A
  8
枠文字
 10
24.2745759293414416
 20
26.1837416384969401
 30
0.0
 40
0.150643
 50
268.8480000000012069
 51
315.1879999999977144
  0
ARC
  5
1585B
  8
枠文字
 10
24.2687759293414693
 20
26.1901416384969288
 30
0.0
 40
0.157019
 50
225.791000000002299
 51
271.0310000000009154
  0
ARC
  5
1585C
  8
枠文字
 10
24.2713759293414384
 20
26.1869416384969398
 30
0.0
 40
0.156603
 50
179.0289999999995132
 51
224.2689999999996076
  0
LINE
  5
1585D
  8
枠ライン
 10
86.5615096793830503
 20
26.5813569511210517
 30
0.0
 11
86.5615096793830503
 21
28.0121991726744284
 31
0.0
  0
TEXT
  5
1585E
  8
枠文字
 10
87.2743690127162637
 20
24.2917992342742188
 30
0.0
 40
1.686729999999999
  1
検
 72
     1
 11
88.0615096793829366
 21
24.2917992342742188
 31
0.0
  0
LINE
  5
1585F
  8
枠ライン
 10
131.321096701897801
 20
28.0121352815516609
 30
0.0
 11
131.3210780796719916
 21
15.3303850876397405
 31
0.0
  0
LINE
  5
15860
  8
枠ライン
 10
152.620167484282689
 20
28.0121048786450189
 30
0.0
 11
152.620167484282689
 21
15.3305369511210792
 31
0.0
  0
LINE
  5
15861
  8
枠ライン
 10
152.620167484282689
 20
15.3305369511210792
 30
0.0
 11
152.620167484282689
 21
28.0121048786450189
 31
0.0
  0
LINE
  5
15862
  8
枠ライン
 10
104.0619096793830067
 20
28.0121741920998097
 30
0.0
 11
104.0619096793830067
 21
15.3305369511210792
 31
0.0
  0
TEXT
  5
15864
  8
枠文字
 10
153.6211674842826085
 20
19.3563840010880313
 30
0.0
 40
1.9678500000000001
  1
PART 
  0
LINE
  5
15865
  8
枠ライン
 10
104.0619079770550002
 20
21.6714601845956985
 30
0.0
 11
131.32108739078501
 21
21.6712601845956883
 31
0.0
  0
TEXT
  5
15867
  8
枠文字
 10
132.471809506031093
 20
25.5346882974398603
 30
0.0
 40
1.9678500000000001
  1
SCALE
  0
LINE
  5
15868
  8
枠ライン
 10
152.620167484282689
 20
22.8305569511210216
 30
0.0
 11
152.620167484282689
 21
28.0121048786450189
 31
0.0
  0
TEXT
  5
15869
  8
枠文字
 10
153.6211674842826937
 20
25.6751910893488109
 30
0.0
 40
1.9678500000000001
  1
TITLE
  0
TEXT
  5
1586A
  8
枠文字
 10
275.3401877312406896
 20
25.1904283395975916
 30
0.0
 40
1.9678500000000001
  1
No.
  0
LINE
  5
15893
  8
枠横ライン
 10
274.2761877312406114
 20
15.3301369511210606
 30
0.0
 11
274.2761877312406114
 21
28.0119312233402695
 31
0.0
  0
LINE
  5
15894
  8
枠ライン
 10
209.3041877312406882
 20
22.8301569511210687
 30
0.0
 11
209.3041877312406882
 21
15.3301369511210606
 31
0.0
  0
LINE
  5
159AE
  8
枠ライン
 10
209.3041877312406882
 20
28.0120239662430812
 30
0.0
 11
209.3041877312406882
 21
22.8301569511210687
 31
0.0
  0
TEXT
  5
15C2E
  8
枠文字
 10
128.9773598360534095
 20
18.7275926238773991
 30
0.0
 40
2.399999999999999
  1
 　1:2 1:3 1:10
  0
TEXT
  5
15C2F
  8
枠文字
 10
164.2653350943955104
 20
16.3175120287760897
 30
0.0
 40
2.399999999999999
  1
DWB－FRTB プラライン
  0
LINE
  5
15C34
  8
枠横ライン
 10
14.7990164825686694
 20
207.1473585869507872
 30
0.0
 11
295.0231546004712868
 21
207.1469585869508023
 31
0.0
  0
LINE
  5
17300
  8
枠横ライン
 10
14.7987426777166799
 20
15.3305369511121992
 30
0.0
 11
14.7990164825686694
 21
207.1473585869507872
 31
0.0
  0
LINE
  5
17301
  8
枠横ライン
 10
295.0228807956193009
 20
15.3301369511121806
 30
0.0
 11
295.0231546004712868
 21
207.1469585869508023
 31
0.0
  0
TEXT
  5
1E929
  8
枠文字
 10
105.3023079770546957
 20
19.2004099780240693
 30
0.0
 40
1.9678500000000001
  1
DRAWING
  0
TEXT
  5
1E92A
  8
枠文字
 10
105.3023096793829012
 20
25.5346882974398603
 30
0.0
 40
1.9678500000000001
  1
DATE
  0
TEXT
  5
1E92B
  8
枠文字
 10
113.649200805864993
 20
22.8165704276572008
 30
0.0
 40
2.0
  1
2024．4．1
  0
TEXT
  5
1E92C
  8
枠文字
 10
123.0541484790082052
 20
16.9514763127165082
 30
0.0
 40
2.0
  1
高　桑
  0
ARC
  5
23EDD
  8
本体1
  6
CONTINUOUS
 10
110.3188324881657962
 20
162.5131605930318131
 30
0.0
 40
0.4999999500000001
 50
180.0
 51
270.0
  0
LINE
  5
23EDE
  8
壁
 10
73.2438374881654681
 20
169.5131355930317056
 30
0.0
 11
129.1682392838565931
 21
169.5131355930317056
 31
0.0
  0
LINE
  5
23EDF
  8
本体1
 10
73.2486180946717695
 20
166.613140593031801
 30
0.0
 11
112.7688374881655022
 21
166.613140593031801
 31
0.0
  0
LINE
  5
23EE0
  8
本体1
  6
CONTINUOUS
 10
109.8188324881657962
 20
166.5132005930317121
 30
0.0
 11
112.7688374881655022
 21
166.5132005930317121
 31
0.0
  0
LINE
  5
23EE1
  8
本体1
  6
CONTINUOUS
 10
109.8188324881657962
 20
168.1131405930327105
 30
0.0
 11
112.7688374881655022
 21
168.1131405930327105
 31
0.0
  0
LINE
  5
23EE2
  8
本体1
  6
CONTINUOUS
 10
112.7688374881655022
 20
168.6631755930316956
 30
0.0
 11
109.8188324881657962
 21
168.6631755930316956
 31
0.0
  0
LINE
  5
23EE3
  8
壁
 10
18.569633036157601
 20
169.5131355930317056
 30
0.0
 11
71.9938374881654681
 21
169.5131355930317056
 31
0.0
  0
LINE
  5
23EE4
  8
壁
 10
30.0049995201690116
 20
176.4884081323955911
 30
0.0
 11
22.93393170830279
 21
169.4173403205307977
 31
0.0
  0
LINE
  5
23EE5
  8
壁
 10
32.5049995201690081
 20
176.4884081323955911
 30
0.0
 11
25.4339317083028007
 21
169.4173403205307977
 31
0.0
  0
LINE
  5
23EE6
  8
壁
 10
27.5049995201690116
 20
176.4884081323955911
 30
0.0
 11
20.43393170830279
 21
169.4173403205307977
 31
0.0
  0
LINE
  5
23EE8
  8
本体1
 10
32.4688174881667919
 20
166.613140593031801
 30
0.0
 11
71.4808511417046475
 21
166.613140593031801
 31
0.0
  0
LINE
  5
23EE9
  8
本体1
 10
35.4188674881658017
 20
162.5131605930318131
 30
0.0
 11
71.9938374881654681
 21
162.5131605930318131
 31
0.0
  0
LINE
  5
23EEA
  8
本体1
 10
35.4188674881658017
 20
164.363140593031801
 30
0.0
 11
71.9938374881654681
 21
164.363140593031801
 31
0.0
  0
LINE
  5
23EEB
  8
本体1
 10
35.4188674881658017
 20
163.8631405930316873
 30
0.0
 11
71.9938374881654681
 21
163.8631405930316873
 31
0.0
  0
LINE
  5
23EEC
  8
本体1
 10
35.4188674881658017
 20
163.363140593031801
 30
0.0
 11
71.9938374881654681
 21
163.363140593031801
 31
0.0
  0
LINE
  5
23EED
  8
本体1
 10
35.4188674881658017
 20
168.1131405930327105
 30
0.0
 11
71.9938374881654681
 21
168.1131405930327105
 31
0.0
  0
LINE
  5
23EEE
  8
本体1
  6
CONTINUOUS
 10
34.8688524881655368
 20
162.5631705930317139
 30
0.0
 11
34.8688524881655368
 21
165.9631855930317101
 31
0.0
  0
LINE
  5
23EEF
  8
本体1
  6
CONTINUOUS
 10
35.4188674881658017
 20
162.5131605930318131
 30
0.0
 11
35.4188674881658017
 21
166.5132005930317121
 31
0.0
  0
ARC
  5
23EF0
  8
本体1
  6
CONTINUOUS
 10
33.4188274881659027
 20
163.5131805930317057
 30
0.0
 40
0.9499999500000001
 50
180.0
 51
270.0
  0
ARC
  5
23EF1
  8
本体1
  6
CONTINUOUS
 10
33.4188274881659027
 20
163.5131805930317057
 30
0.0
 40
1.4999999500000001
 50
180.0
 51
270.0
  0
ARC
  5
23EF2
  8
本体1
  6
CONTINUOUS
 10
34.9188574881655995
 20
162.5131605930318131
 30
0.0
 40
0.4999999500000001
 50
270.0
 51
0.0
  0
LINE
  5
23EF3
  8
本体1
  6
CONTINUOUS
 10
34.9188574881655995
 20
162.0131855930316078
 30
0.0
 11
33.4188274881659027
 21
162.0131855930316078
 31
0.0
  0
LINE
  5
23EF4
  8
本体1
  6
CONTINUOUS
 10
34.8688524881655368
 20
162.5631705930317139
 30
0.0
 11
33.4188274881659027
 21
162.5631705930317139
 31
0.0
  0
LINE
  5
23EF5
  8
本体1
  6
CONTINUOUS
 10
32.4688174881667919
 20
168.6631755930316956
 30
0.0
 11
32.4688174881667919
 21
169.5131355930317056
 31
0.0
  0
LINE
  5
23EF6
  8
本体1
  6
CONTINUOUS
 10
31.91883748816565
 20
163.5131805930317057
 30
0.0
 11
31.91883748816565
 21
169.5131355930317056
 31
0.0
  0
LINE
  5
23EF7
  8
本体1
  6
CONTINUOUS
 10
32.4688174881667919
 20
168.6631755930316956
 30
0.0
 11
35.4188674881658017
 21
168.6631755930316956
 31
0.0
  0
LINE
  5
23EF8
  8
本体1
  6
CONTINUOUS
 10
32.4688174881667919
 20
168.1131405930327105
 30
0.0
 11
35.4188674881658017
 21
168.1131405930327105
 31
0.0
  0
LINE
  5
23EF9
  8
本体1
  6
CONTINUOUS
 10
32.4688174881667919
 20
166.5132005930317121
 30
0.0
 11
35.4188674881658017
 21
166.5132005930317121
 31
0.0
  0
LINE
  5
23EFA
  8
本体1
  6
CONTINUOUS
 10
32.4688174881667919
 20
163.5131805930317057
 30
0.0
 11
32.4688174881667919
 21
165.9631855930317101
 31
0.0
  0
LINE
  5
23EFB
  8
本体1
  6
CONTINUOUS
 10
32.4688174881667919
 20
165.9631855930317101
 30
0.0
 11
34.8688524881655368
 21
165.9631855930317101
 31
0.0
  0
LINE
  5
23EFC
  8
本体1
  6
CONTINUOUS
 10
32.4688174881667919
 20
166.5132005930317121
 30
0.0
 11
32.4688174881667919
 21
168.1131405930327105
 31
0.0
  0
LINE
  5
23EFD
  8
本体1
 10
35.4188674881658017
 20
163.363140593031801
 30
0.0
 11
35.4188674881658017
 21
166.613140593031801
 31
0.0
  0
LINE
  5
23F00
  8
本体1
  6
CONTINUOUS
 10
35.4188674881658017
 20
168.1131405930327105
 30
0.0
 11
35.4188674881658017
 21
168.6631755930316956
 31
0.0
  0
LINE
  5
23F01
  8
本体1
  6
CONTINUOUS
 10
31.91883748816565
 20
169.5131355930317056
 30
0.0
 11
32.4688174881667919
 21
169.5131355930317056
 31
0.0
  0
LINE
  5
23F02
  8
本体1
 10
50.7287166492916413
 20
168.1131405930327105
 30
0.0
 11
50.7287166492916413
 21
169.5131355930317056
 31
0.0
  0
LINE
  5
23F03
  8
本体2
  6
CONTINUOUS
 10
73.2438374881654681
 20
165.3631405930316873
 30
0.0
 11
109.8188324881657962
 21
165.3631405930316873
 31
0.0
  0
LINE
  5
23F04
  8
本体1
 10
109.8188324881657962
 20
168.1131405930327105
 30
0.0
 11
73.4890568816609857
 21
168.1131405930327105
 31
0.0
  0
LINE
  5
23F05
  8
本体2
  6
CONTINUOUS
 10
73.2438374881654681
 20
165.8631405930316873
 30
0.0
 11
109.8188324881657962
 21
165.8631405930316873
 31
0.0
  0
LINE
  5
23F06
  8
本体2
  6
CONTINUOUS
 10
73.2438374881654681
 20
164.613140593031801
 30
0.0
 11
109.8188324881657962
 21
164.613140593031801
 31
0.0
  0
LINE
  5
23F07
  8
本体2
  6
CONTINUOUS
 10
73.2438374881654681
 20
164.1131405930316873
 30
0.0
 11
109.8188324881657962
 21
164.1131405930316873
 31
0.0
  0
LINE
  5
23F08
  8
本体1
 10
73.2438374881654681
 20
163.363140593031801
 30
0.0
 11
109.8188324881657962
 21
163.363140593031801
 31
0.0
  0
LINE
  5
23F09
  8
本体1
 10
73.2438374881654681
 20
162.5131605930318131
 30
0.0
 11
109.8185527210086008
 21
162.5131605930318131
 31
0.0
  0
LINE
  5
23F0A
  8
注釈
 10
71.9938374881654681
 20
160.818521008461687
 30
0.0
 11
71.9938374881654681
 21
165.3761269394925932
 31
0.0
  0
LINE
  5
23F0B
  8
注釈
 10
73.2438374881654681
 20
160.818521008461687
 30
0.0
 11
73.2438374881654681
 21
165.8938938924586068
 31
0.0
  0
LINE
  5
23F0C
  8
注釈
 10
71.9938374881654681
 20
167.8405930335597134
 30
0.0
 11
71.9938374881654681
 21
172.1361820546624983
 31
0.0
  0
LINE
  5
23F0D
  8
注釈
 10
73.2438374881654681
 20
168.3583599865266081
 30
0.0
 11
73.2438374881654681
 21
172.1361820546624983
 31
0.0
  0
LINE
  5
23F0E
  8
注釈
 10
73.2438374881654681
 20
165.8938938924586068
 30
0.0
 11
72.8866044411325902
 21
166.2511269394925932
 31
0.0
  0
LINE
  5
23F0F
  8
注釈
 10
71.9938374881654681
 20
165.3761269394925932
 30
0.0
 11
71.1188374881654681
 21
166.2511269394925932
 31
0.0
  0
LINE
  5
23F10
  8
注釈
 10
72.3510705351997103
 20
167.4833599865266081
 30
0.0
 11
71.9938374881654681
 21
167.8405930335597134
 31
0.0
  0
LINE
  5
23F11
  8
注釈
 10
72.3510705351997103
 20
167.4833599865266081
 30
0.0
 11
71.1188374881654681
 21
166.2511269394925932
 31
0.0
  0
LINE
  5
23F12
  8
注釈
 10
74.1188374881654539
 20
167.4833599865266081
 30
0.0
 11
73.2438374881654681
 21
168.3583599865266081
 31
0.0
  0
LINE
  5
23F13
  8
注釈
 10
74.1188374881654539
 20
167.4833599865266081
 30
0.0
 11
72.8866044411325902
 21
166.2511269394925932
 31
0.0
  0
LINE
  5
23F14
  8
本体1
  6
CONTINUOUS
 10
109.8188324881657962
 20
162.5131605930318131
 30
0.0
 11
109.8188324881657962
 21
166.5132005930317121
 31
0.0
  0
LINE
  5
23F15
  8
本体1
  6
CONTINUOUS
 10
109.8188324881657962
 20
168.1131405930327105
 30
0.0
 11
109.8188324881657962
 21
168.6631755930316956
 31
0.0
  0
LINE
  5
23F16
  8
本体1
  6
CONTINUOUS
 10
109.8188324881657962
 20
163.1131405930316873
 30
0.0
 11
109.8188324881657962
 21
166.5132005930317121
 31
0.0
  0
LINE
  5
23F18
  8
壁
 10
124.6706754876345968
 20
176.5842034048974938
 30
0.0
 11
117.599607675768894
 21
169.5131355930317056
 31
0.0
  0
LINE
  5
23F19
  8
壁
 10
127.1706754876345968
 20
176.5842034048974938
 30
0.0
 11
120.099607675768894
 21
169.5131355930317056
 31
0.0
  0
ARC
  5
23F1A
  8
本体1
  6
CONTINUOUS
 10
111.8188424881664957
 20
163.5131805930317057
 30
0.0
 40
1.4999999500000001
 50
270.0
 51
0.0
  0
ARC
  5
23F1B
  8
本体1
  6
CONTINUOUS
 10
111.8188424881664957
 20
163.5131805930317057
 30
0.0
 40
0.9499999500000001
 50
270.0
 51
0.0
  0
LINE
  5
23F1C
  8
本体1
  6
CONTINUOUS
 10
110.3688324881655944
 20
162.5631705930317139
 30
0.0
 11
110.3688324881655944
 21
165.9631855930317101
 31
0.0
  0
LINE
  5
23F1D
  8
本体1
  6
CONTINUOUS
 10
111.8188424881664957
 20
162.0131855930316078
 30
0.0
 11
110.3188324881657962
 21
162.0131855930316078
 31
0.0
  0
LINE
  5
23F1E
  8
本体1
  6
CONTINUOUS
 10
110.3688324881655944
 20
162.5631705930317139
 30
0.0
 11
111.8188424881664957
 21
162.5631705930317139
 31
0.0
  0
LINE
  5
23F1F
  8
本体1
  6
CONTINUOUS
 10
113.3188374881665936
 20
163.5131805930317057
 30
0.0
 11
113.3188374881665936
 21
169.5131355930317056
 31
0.0
  0
LINE
  5
23F20
  8
本体1
  6
CONTINUOUS
 10
112.7688374881655022
 20
163.5131805930317057
 30
0.0
 11
112.7688374881655022
 21
165.9631855930317101
 31
0.0
  0
LINE
  5
23F21
  8
本体1
  6
CONTINUOUS
 10
112.7688374881655022
 20
165.9631855930317101
 30
0.0
 11
110.3688324881655944
 21
165.9631855930317101
 31
0.0
  0
LINE
  5
23F22
  8
本体1
  6
CONTINUOUS
 10
112.7688374881655022
 20
166.5132005930317121
 30
0.0
 11
112.7688374881655022
 21
168.1131405930327105
 31
0.0
  0
LINE
  5
23F23
  8
本体1
  6
CONTINUOUS
 10
112.7688374881655022
 20
168.6631755930316956
 30
0.0
 11
112.7688374881655022
 21
169.5131355930317056
 31
0.0
  0
LINE
  5
23F24
  8
本体1
  6
CONTINUOUS
 10
113.3188374881665936
 20
169.5131355930317056
 30
0.0
 11
112.7688374881655022
 21
169.5131355930317056
 31
0.0
  0
LINE
  5
23F25
  8
壁
 10
122.1706754876345968
 20
176.5842034048974938
 30
0.0
 11
115.099607675768894
 21
169.5131355930317056
 31
0.0
  0
LINE
  5
23F4A
  8
本体1
 10
40.7969199731565979
 20
168.1131405930327105
 30
0.0
 11
40.7969199731565979
 21
169.5131355930317056
 31
0.0
  0
TEXT
  5
240DC
  8
注釈
 10
73.0253327349247456
 20
187.8314084792465053
 30
0.0
 40
2.9999999999999978
  1
アルマイト仕上
  7
角ゴ
  0
TEXT
  5
240DD
  8
注釈
 10
55.0804179879784215
 20
191.6727310301866112
 30
0.0
 40
2.9999999999999978
  1
フレーム：アルミ型材 
  7
角ゴ
  0
LINE
  5
240DE
  8
注釈
 10
54.5110310754217835
 20
191.1828538115265985
 30
0.0
 11
98.0212793503857256
 21
191.1828538115265985
 31
0.0
  0
TEXT
  5
240E1
  8
注釈
 10
224.2670291958174005
 20
179.3335705313837138
 30
0.0
 40
2.9999999999999978
  1
ＡＢＳ樹脂
  7
角ゴ
  0
LINE
  5
240E2
  8
注釈
 10
223.2497804357516031
 20
178.8436933127237012
 30
0.0
 11
242.5309162014276865
 21
178.8436933127237012
 31
0.0
1001
ACAD
1000
DSTYLE
1002
{
1070
    41
1040
0.5
1070
    42
1040
1.0
1070
    43
1040
3.0
1070
    44
1040
0.0
1070
    73
1070
     0
1070
    74
1070
     0
1070
    77
1070
     3
1070
    78
1070
    13
1070
   140
1040
2.399999999999999
1070
   141
1040
0.0
1070
   143
1040
0.0394
1070
   147
1040
0.7
1070
   171
1070
     4
1070
   172
1070
     1
1070
   173
1070
     1
1070
   176
1070
     2
1070
   177
1070
     2
1070
   178
1070
     2
1070
   271
1070
     0
1070
   272
1070
     0
1070
   273
1070
     8
1070
   274
1070
     4
1070
   284
1070
    13
1070
   341
1005
36B9
1070
   343
1005
36B9
1070
   344
1005
36B9
1002
}
  0
LINE
  5
240F4
  8
注釈
 10
224.4707129211500956
 20
159.0044231295277939
 30
0.0
 11
290.2950993070242021
 21
159.0044231295277939
 31
0.0
  0
TEXT
  5
240F5
  8
注釈
 10
224.9828283779202138
 20
159.6825265784931105
 30
0.0
 40
3.0
  1
表示基板：アルミ板t1　プラライン仕上
  7
角ゴ
  0
TEXT
  5
240F6
  8
注釈
 10
276.7088072842767019
 20
155.5646102945644031
 30
0.0
 40
2.9999999999999978
  1
UV印刷
  7
角ゴ
  0
TEXT
  5
240F8
  8
注釈
 10
107.0332717075016973
 20
181.0914560462564111
 30
0.0
 40
2.9999999999999978
  1
ベース：アルミ複合板 t3
  7
角ゴ
  0
LINE
  5
240F9
  8
注釈
 10
106.4638847949454998
 20
180.6015788275963985
 30
0.0
 11
151.5427782127736123
 21
180.6015788275963985
 31
0.0
  0
LINE
  5
240FA
  8
注釈
  6
BYBLOCK
 10
51.2715807004784665
 20
176.3189972770975089
 30
0.0
 11
94.5056252180276033
 21
176.3189973681915887
 31
0.0
  0
TEXT
  5
240FB
  8
注釈
  6
CONTINUOUS
 10
69.3206372828386748
 20
176.9372753277718004
 30
0.0
 40
2.9999999999999978
  1
アルマイト仕上
  7
角ゴ
  0
TEXT
  5
240FC
  8
注釈
 10
80.2710276210815437
 20
172.7842195491627137
 30
0.0
 40
2.9999999999999978
  1
UV印刷
  7
角ゴ
  0
TEXT
  5
240FD
  8
注釈
  6
CONTINUOUS
 10
51.2763129502305901
 20
180.5944013900547134
 30
0.0
 40
2.9999999999999978
  1
表示基板：アルミ型材
  7
角ゴ
  0
TEXT
  5
2412D
  8
注釈
 10
117.5781062816946019
 20
152.3948025028626887
 30
0.0
 40
3.0
  1
S=1:2
  7
角ゴ
  0
TEXT
  5
2412F
  8
注釈
 10
235.8104542751063093
 20
36.5556966418347429
 30
0.0
 40
3.0
  1
S=1:3
  7
角ゴ
  0
LINE
  5
246ED
  8
注釈
 10
212.1796415989844888
 20
170.718001063970604
 30
0.0
 11
214.2454369141962047
 21
170.718001063970604
 31
0.0
  0
LINE
  5
2483A
  8
本体1
 10
50.5851498580700323
 20
108.0789465900679005
 30
0.0
 11
50.5851498580700323
 21
48.0789465900679005
 31
0.0
  0
LINE
  5
2483B
  8
本体1
 10
51.2851498580700778
 20
108.0789465900679005
 30
0.0
 11
51.2851498580700778
 21
48.0789465900679005
 31
0.0
  0
LINE
  5
2483C
  8
本体1
 10
50.5851498580700323
 20
48.0789465900679005
 30
0.0
 11
96.385149858070136
 21
48.0789465900679005
 31
0.0
  0
LINE
  5
2483D
  8
本体1
 10
96.385149858070136
 20
48.0789465900679005
 30
0.0
 11
96.385149858070136
 21
108.0789465900679005
 31
0.0
  0
LINE
  5
2483E
  8
本体1
 10
95.6851498580700763
 20
48.0789465900679005
 30
0.0
 11
95.6851498580700763
 21
108.0789465900679005
 31
0.0
  0
LINE
  5
2483F
  8
本体1
 10
96.385149858070136
 20
108.0789465900679005
 30
0.0
 11
50.5851498580700323
 21
108.0789465900679005
 31
0.0
  0
LINE
  5
24840
  8
本体1
 10
95.6851498580700763
 20
96.0789465900678579
 30
0.0
 11
51.2851498580700778
 21
96.0789465900678579
 31
0.0
  0
LINE
  5
24841
  8
本体1
 10
95.6851498580700763
 20
95.8789465900679261
 30
0.0
 11
51.2851498580700778
 21
95.8789465900679261
 31
0.0
  0
LINE
  5
24842
  8
本体1
 10
51.2851498580700778
 20
95.8789465900679261
 30
0.0
 11
51.2851498580700778
 21
48.0789465900679005
 31
0.0
  0
LINE
  5
24849
  8
本体1
 10
51.2851498580700778
 20
48.0789465900679005
 30
0.0
 11
95.6851498580700763
 21
48.0789465900679005
 31
0.0
  0
LINE
  5
2484C
  8
本体1
 10
95.6851498580700763
 20
48.0789465900679005
 30
0.0
 11
95.6851498580700763
 21
95.8789465900679261
 31
0.0
  0
LINE
  5
2484D
  8
本体1
 10
95.6851498580700763
 20
95.8789465900679261
 30
0.0
 11
51.2851498580700778
 21
95.8789465900679261
 31
0.0
  0
LINE
  5
2575C
  8
PL11
 62
     7
 10
51.2851498580700778
 20
108.0789465900679005
 30
0.0
 11
57.4000674312481181
 21
108.0789465900679005
 31
0.0
  0
LINE
  5
2575D
  8
PL11
 62
     7
 10
51.2851498580700778
 20
107.7789465900679033
 30
0.0
 11
67.1000674312481067
 21
107.7789465900679033
 31
0.0
  0
LINE
  5
2575E
  8
PL11
 62
     7
 10
51.2851498580700778
 20
107.4789465900675935
 30
0.0
 11
66.8000674312479248
 21
107.4789465900675935
 31
0.0
  0
LINE
  5
2575F
  8
PL11
 62
     7
 10
51.2851498580700778
 20
107.1789465900675964
 30
0.0
 11
66.500067431247615
 21
107.1789465900675964
 31
0.0
  0
LINE
  5
25760
  8
PL11
 62
     7
 10
51.2851498580700778
 20
106.8789465900674003
 30
0.0
 11
66.2000674312476747
 21
106.8789465900674003
 31
0.0
  0
LINE
  5
25761
  8
PL11
 62
     7
 10
51.2851498580700778
 20
106.5789465900674031
 30
0.0
 11
65.9000674312474928
 21
106.5789465900674031
 31
0.0
  0
LINE
  5
25762
  8
PL11
 62
     7
 10
51.2851498580700778
 20
106.278946590067207
 30
0.0
 11
65.6000674312474814
 21
106.278946590067207
 31
0.0
  0
LINE
  5
25763
  8
PL11
 62
     7
 10
51.2851498580700778
 20
105.9789465900669967
 30
0.0
 11
65.3000674312472853
 21
105.9789465900669967
 31
0.0
  0
LINE
  5
25764
  8
PL11
 62
     7
 10
51.2851498580700778
 20
105.8789465900670024
 30
0.0
 11
65.0000674312472739
 21
105.8789465900670024
 31
0.0
  0
LINE
  5
25765
  8
PL11
 62
     7
 10
51.2851498580700778
 20
105.5789465900669057
 30
0.0
 11
64.7000674312469926
 21
105.5789465900669057
 31
0.0
  0
LINE
  5
25766
  8
PL11
 62
     7
 10
51.2851498580700778
 20
105.2789465900668944
 30
0.0
 11
64.4000674312469243
 21
105.2789465900668944
 31
0.0
  0
LINE
  5
25767
  8
PL11
 62
     7
 10
51.2851498580700778
 20
104.9789465900666983
 30
0.0
 11
64.100067431246913
 21
104.9789465900666983
 31
0.0
  0
LINE
  5
25768
  8
PL11
 62
     7
 10
51.2851498580700778
 20
104.6789465900666016
 30
0.0
 11
63.8000674312469087
 21
104.6789465900666016
 31
0.0
  0
LINE
  5
25769
  8
PL11
 62
     7
 10
51.2851498580700778
 20
104.378946590066505
 30
0.0
 11
63.50006743124667
 21
104.378946590066505
 31
0.0
  0
LINE
  5
25787
  8
PL11
 62
     7
 10
51.2851498580700778
 20
100.7789465900650043
 30
0.0
 11
59.900067431245219
 21
100.7789465900650043
 31
0.0
  0
LINE
  5
25788
  8
PL11
 62
     7
 10
51.2851498580700778
 20
101.0789465900652004
 30
0.0
 11
60.200067431245472
 21
101.0789465900652004
 31
0.0
  0
LINE
  5
25789
  8
PL11
 62
     7
 10
51.2851498580700778
 20
101.3789465900651976
 30
0.0
 11
60.5000674312454834
 21
101.3789465900651976
 31
0.0
  0
LINE
  5
2578A
  8
PL11
 62
     7
 10
51.2851498580700778
 20
101.6789465900654932
 30
0.0
 11
60.8000674312454876
 21
101.6789465900654932
 31
0.0
  0
LINE
  5
2578B
  8
PL11
 62
     7
 10
51.2851498580700778
 20
101.9789465900655046
 30
0.0
 11
61.1000674312455487
 21
101.9789465900655046
 31
0.0
  0
LINE
  5
2578C
  8
PL11
 62
     7
 10
51.2851498580700778
 20
102.2789465900656012
 30
0.0
 11
61.4000674312458514
 21
102.2789465900656012
 31
0.0
  0
LINE
  5
2578D
  8
PL11
 62
     7
 10
51.2851498580700778
 20
102.5789465900655983
 30
0.0
 11
61.7000674312458628
 21
102.5789465900655983
 31
0.0
  0
LINE
  5
2578E
  8
PL11
 62
     7
 10
51.2851498580700778
 20
102.8789465900657945
 30
0.0
 11
62.0000674312460376
 21
102.8789465900657945
 31
0.0
  0
LINE
  5
2578F
  8
PL11
 62
     7
 10
51.2851498580700778
 20
103.1789465900660048
 30
0.0
 11
62.300067431246049
 21
103.1789465900660048
 31
0.0
  0
LINE
  5
25790
  8
PL11
 62
     7
 10
51.2851498580700778
 20
103.4789465900660019
 30
0.0
 11
62.6000674312462309
 21
103.4789465900660019
 31
0.0
  0
LINE
  5
25791
  8
PL11
 62
     7
 10
51.2851498580700778
 20
103.778946590066198
 30
0.0
 11
62.9000674312461925
 21
103.778946590066198
 31
0.0
  0
LINE
  5
25792
  8
PL11
 62
     7
 10
51.2851498580700778
 20
104.0789465900661952
 30
0.0
 11
63.2000674312464881
 21
104.0789465900661952
 31
0.0
  0
LINE
  5
25793
  8
PL11
 62
     7
 10
51.2851498580700778
 20
104.378946590066505
 30
0.0
 11
63.50006743124667
 21
104.378946590066505
 31
0.0
  0
LINE
  5
25794
  8
PL11
 62
     7
 10
51.2851498580700778
 20
104.6789465900665022
 30
0.0
 11
53.8000674312466813
 21
104.6789465900665022
 31
0.0
  0
LINE
  5
257B9
  8
PL11
 62
     7
 10
94.9851498580700451
 20
96.0789465900678579
 30
0.0
 11
88.8702322848919835
 21
96.0789465900678579
 31
0.0
  0
LINE
  5
257BA
  8
PL11
 62
     7
 10
95.6851498580700763
 20
96.3789465900678692
 30
0.0
 11
79.8702322848920545
 21
96.3789465900678692
 31
0.0
  0
LINE
  5
257BB
  8
PL11
 62
     7
 10
95.6851498580700763
 20
96.6789465900681222
 30
0.0
 11
80.1702322848922506
 21
96.6789465900681222
 31
0.0
  0
LINE
  5
257BC
  8
PL11
 62
     7
 10
95.6851498580700763
 20
96.9789465900681336
 30
0.0
 11
80.4702322848925462
 21
96.9789465900681336
 31
0.0
  0
LINE
  5
257BD
  8
PL11
 62
     7
 10
95.6851498580700763
 20
97.2789465900683012
 30
0.0
 11
80.7702322848925149
 21
97.2789465900683012
 31
0.0
  0
LINE
  5
257BE
  8
PL11
 62
     7
 10
95.6851498580700763
 20
97.5789465900683126
 30
0.0
 11
81.0702322848926826
 21
97.5789465900683126
 31
0.0
  0
LINE
  5
257BF
  8
PL11
 62
     7
 10
95.6851498580700763
 20
97.8789465900685514
 30
0.0
 11
81.370232284892694
 21
97.8789465900685514
 31
0.0
  0
LINE
  5
257C0
  8
PL11
 62
     7
 10
95.6851498580700763
 20
98.1789465900687333
 30
0.0
 11
81.6702322848928759
 21
98.1789465900687333
 31
0.0
  0
LINE
  5
257C1
  8
PL11
 62
     7
 10
95.6851498580700763
 20
98.4789465900687446
 30
0.0
 11
81.9702322848928731
 21
98.4789465900687446
 31
0.0
  0
LINE
  5
257C2
  8
PL11
 62
     7
 10
95.6851498580700763
 20
98.778946590068827
 30
0.0
 11
82.2702322848931686
 21
98.778946590068827
 31
0.0
  0
LINE
  5
257C3
  8
PL11
 62
     7
 10
95.6851498580700763
 20
99.0789465900688242
 30
0.0
 11
82.5702322848932369
 21
99.0789465900688242
 31
0.0
  0
LINE
  5
257C4
  8
PL11
 62
     7
 10
95.6851498580700763
 20
99.3789465900690629
 30
0.0
 11
82.870232284893234
 21
99.3789465900690629
 31
0.0
  0
LINE
  5
257C5
  8
PL11
 62
     7
 10
95.6851498580700763
 20
99.6789465900690743
 30
0.0
 11
83.1702322848932454
 21
99.6789465900690743
 31
0.0
  0
LINE
  5
257C6
  8
PL11
 62
     7
 10
95.6851498580700763
 20
99.9789465900692562
 30
0.0
 11
83.4702322848934841
 21
99.9789465900692562
 31
0.0
  0
LINE
  5
257C7
  8
PL11
 62
     7
 10
94.9851498580700451
 20
99.6789465900692448
 30
0.0
 11
92.4702322848934273
 21
99.6789465900692448
 31
0.0
  0
LINE
  5
257C8
  8
PL11
 62
     7
 10
95.6851498580700763
 20
99.9789465900692562
 30
0.0
 11
83.4702322848934841
 21
99.9789465900692562
 31
0.0
  0
LINE
  5
257C9
  8
PL11
 62
     7
 10
95.6851498580700763
 20
100.278946590069495
 30
0.0
 11
83.770232284893666
 21
100.278946590069495
 31
0.0
  0
LINE
  5
257CA
  8
PL11
 62
     7
 10
95.6851498580700763
 20
100.5789465900695063
 30
0.0
 11
84.0702322848939616
 21
100.5789465900695063
 31
0.0
  0
LINE
  5
257CB
  8
PL11
 62
     7
 10
95.6851498580700763
 20
100.8789465900697024
 30
0.0
 11
84.3702322848939161
 21
100.8789465900697024
 31
0.0
  0
LINE
  5
257CC
  8
PL11
 62
     7
 10
95.6851498580700763
 20
101.1789465900696996
 30
0.0
 11
84.6702322848940838
 21
101.1789465900696996
 31
0.0
  0
LINE
  5
257CD
  8
PL11
 62
     7
 10
95.6851498580700763
 20
101.4789465900698957
 30
0.0
 11
84.9702322848940952
 21
101.4789465900698957
 31
0.0
  0
LINE
  5
257CE
  8
PL11
 62
     7
 10
95.6851498580700763
 20
101.778946590070106
 30
0.0
 11
85.2702322848942913
 21
101.778946590070106
 31
0.0
  0
LINE
  5
257CF
  8
PL11
 62
     7
 10
95.6851498580700763
 20
102.0789465900701032
 30
0.0
 11
85.5702322848943027
 21
102.0789465900701032
 31
0.0
  0
LINE
  5
257D0
  8
PL11
 62
     7
 10
95.6851498580700763
 20
102.3789465900701998
 30
0.0
 11
85.8702322848945983
 21
102.3789465900701998
 31
0.0
  0
LINE
  5
257D1
  8
PL11
 62
     7
 10
95.6851498580700763
 20
102.678946590070197
 30
0.0
 11
86.1702322848946665
 21
102.678946590070197
 31
0.0
  0
LINE
  5
257D2
  8
PL11
 62
     7
 10
95.6851498580700763
 20
102.9789465900705068
 30
0.0
 11
86.4702322848946778
 21
102.9789465900705068
 31
0.0
  0
LINE
  5
257D3
  8
PL11
 62
     7
 10
95.6851498580700763
 20
103.2789465900705039
 30
0.0
 11
86.7702322848946892
 21
103.2789465900705039
 31
0.0
  0
LINE
  5
257D4
  8
PL11
 62
     7
 10
95.6851498580700763
 20
103.5789465900707
 30
0.0
 11
87.0702322848949279
 21
103.5789465900707
 31
0.0
  0
LINE
  5
257EF
  8
PL11
 62
     7
 10
95.6851498580700763
 20
103.5789465900707
 30
0.0
 11
87.0702322848949279
 21
103.5789465900707
 31
0.0
  0
LINE
  5
257F0
  8
PL11
 62
     7
 10
95.6851498580700763
 20
103.8789465900708961
 30
0.0
 11
87.3702322848950956
 21
103.8789465900708961
 31
0.0
  0
LINE
  5
257F1
  8
PL11
 62
     7
 10
95.6851498580700763
 20
104.1789465900708933
 30
0.0
 11
87.6702322848954054
 21
104.1789465900708933
 31
0.0
  0
LINE
  5
257F2
  8
PL11
 62
     7
 10
95.6851498580700763
 20
104.4789465900711036
 30
0.0
 11
87.9702322848953457
 21
104.4789465900711036
 31
0.0
  0
LINE
  5
257F3
  8
PL11
 62
     7
 10
95.6851498580700763
 20
104.7789465900711008
 30
0.0
 11
88.2702322848955419
 21
104.7789465900711008
 31
0.0
  0
LINE
  5
257F4
  8
PL11
 62
     7
 10
95.6851498580700763
 20
105.0789465900712969
 30
0.0
 11
88.5702322848955532
 21
105.0789465900712969
 31
0.0
  0
LINE
  5
257F5
  8
PL11
 62
     7
 10
95.6851498580700763
 20
105.378946590071493
 30
0.0
 11
88.8702322848957351
 21
105.378946590071493
 31
0.0
  0
LINE
  5
257F6
  8
PL11
 62
     7
 10
95.6851498580700763
 20
105.6789465900715044
 30
0.0
 11
89.1702322848957465
 21
105.6789465900715044
 31
0.0
  0
LINE
  5
257F7
  8
PL11
 62
     7
 10
95.6851498580700763
 20
105.978946590071601
 30
0.0
 11
89.4702322848960279
 21
105.978946590071601
 31
0.0
  0
LINE
  5
257F8
  8
PL11
 62
     7
 10
95.6851498580700763
 20
106.0789465900715953
 30
0.0
 11
89.7702322848960961
 21
106.0789465900715953
 31
0.0
  0
LINE
  5
257F9
  8
PL11
 62
     7
 10
95.6851498580700763
 20
106.3789465900719051
 30
0.0
 11
90.0702322848960932
 21
106.3789465900719051
 31
0.0
  0
LINE
  5
257FA
  8
PL11
 62
     7
 10
95.6851498580700763
 20
106.6789465900719023
 30
0.0
 11
90.3702322848961046
 21
106.6789465900719023
 31
0.0
  0
LINE
  5
257FB
  8
PL11
 62
     7
 10
95.6851498580700763
 20
106.9789465900719989
 30
0.0
 11
90.6702322848963433
 21
106.9789465900719989
 31
0.0
  0
LINE
  5
257FC
  8
PL11
 62
     7
 10
95.6851498580700763
 20
106.9789465900719989
 30
0.0
 11
90.6702322848963433
 21
106.9789465900719989
 31
0.0
  0
LINE
  5
257FD
  8
PL11
 62
     7
 10
95.6851498580700763
 20
107.278946590072394
 30
0.0
 11
90.9702322848965252
 21
107.2789465900722945
 31
0.0
  0
LINE
  5
257FE
  8
PL11
 62
     7
 10
95.6851498580700905
 20
107.5789465900724053
 30
0.0
 11
91.2702322848968066
 21
107.5789465900724053
 31
0.0
  0
LINE
  5
257FF
  8
PL11
 62
     7
 10
95.6851498580700763
 20
107.878946590072502
 30
0.0
 11
91.5702322848967754
 21
107.878946590072502
 31
0.0
  0
LINE
  5
25824
  8
PL11
 62
     7
 10
51.2851498580700706
 20
96.2789465900631711
 30
0.0
 11
55.4000674312433503
 21
96.2789465900631853
 31
0.0
  0
LINE
  5
25825
  8
PL11
 62
     7
 10
51.2851498580700778
 20
96.5789465900633814
 30
0.0
 11
55.7000674312433119
 21
96.5789465900633814
 31
0.0
  0
LINE
  5
25826
  8
PL11
 62
     7
 10
51.2851498580700778
 20
96.8789465900633928
 30
0.0
 11
56.0000674312436004
 21
96.8789465900633928
 31
0.0
  0
LINE
  5
25827
  8
PL11
 62
     7
 10
51.2851498580700778
 20
97.1789465900636316
 30
0.0
 11
56.3000674312437823
 21
97.1789465900636458
 31
0.0
  0
LINE
  5
25828
  8
PL11
 62
     7
 10
51.2851498580700778
 20
97.1789465900636316
 30
0.0
 11
56.3000674312437823
 21
97.1789465900636458
 31
0.0
  0
LINE
  5
25829
  8
PL11
 62
     7
 10
51.2851498580700778
 20
97.4789465900638419
 30
0.0
 11
56.6000674312440211
 21
97.4789465900638419
 31
0.0
  0
LINE
  5
2582A
  8
PL11
 62
     7
 10
51.2851498580700778
 20
97.7789465900638533
 30
0.0
 11
56.9000674312440324
 21
97.7789465900638533
 31
0.0
  0
LINE
  5
2582B
  8
PL11
 62
     7
 10
51.2851498580700778
 20
98.078946590064092
 30
0.0
 11
57.2000674312440367
 21
98.0789465900641062
 31
0.0
  0
LINE
  5
2582C
  8
PL11
 62
     7
 10
51.2851498580700778
 20
98.3789465900641176
 30
0.0
 11
57.500067431244112
 21
98.3789465900641176
 31
0.0
  0
LINE
  5
2582D
  8
PL11
 62
     7
 10
51.2851498580700778
 20
98.6789465900641858
 30
0.0
 11
57.8000674312444076
 21
98.6789465900641858
 31
0.0
  0
LINE
  5
2582E
  8
PL11
 62
     7
 10
51.2851498580700778
 20
98.9789465900641972
 30
0.0
 11
58.100067431244419
 21
98.9789465900641972
 31
0.0
  0
LINE
  5
2582F
  8
PL11
 62
     7
 10
51.2851498580700778
 20
99.2789465900643791
 30
0.0
 11
58.4000674312446009
 21
99.2789465900643791
 31
0.0
  0
LINE
  5
25830
  8
PL11
 62
     7
 10
51.2851498580700778
 20
99.5789465900646036
 30
0.0
 11
58.7000674312446122
 21
99.578946590064632
 31
0.0
  0
LINE
  5
25831
  8
PL11
 62
     7
 10
51.2851498580700778
 20
99.8789465900646007
 30
0.0
 11
59.000067431244787
 21
99.8789465900646007
 31
0.0
  0
LINE
  5
25832
  8
PL11
 62
     7
 10
51.2851498580700778
 20
100.1789465900646974
 30
0.0
 11
59.3000674312447487
 21
100.1789465900647969
 31
0.0
  0
LINE
  5
25833
  8
PL11
 62
     7
 10
51.2851498580700778
 20
100.478946590064794
 30
0.0
 11
59.6000674312450371
 21
100.478946590064794
 31
0.0
  0
LINE
  5
25834
  8
PL11
 62
     7
 10
51.2851498580700778
 20
100.7789465900650043
 30
0.0
 11
59.900067431245219
 21
100.7789465900650043
 31
0.0
  0
LINE
  5
25FF7
  8
PL2
 10
211.7811928291972094
 20
167.4318479053617921
 30
0.0
 11
211.7811928291972094
 21
156.5886974594779986
 31
0.0
  0
LINE
  5
25FF8
  8
PL2
 10
212.7811928291972094
 20
167.4296081850582993
 30
0.0
 11
212.7811928291972094
 21
156.5886974594779986
 31
0.0
  0
LINE
  5
25FF9
  8
壁
 10
213.7811928291972094
 20
167.4273684647548066
 30
0.0
 11
213.7811928291972094
 21
156.5886974594779986
 31
0.0
  0
LINE
  5
25FFA
  8
ビス類
 10
213.7619747645080963
 20
148.9849289124956044
 30
0.0
 11
213.7619747645080963
 21
146.9838772343917128
 31
0.0
  0
LINE
  5
25FFB
  8
PL9
 10
212.761832852569114
 20
147.9448133867232116
 30
0.0
 11
212.761832852569114
 21
152.9448133867232116
 31
0.0
  0
LINE
  5
25FFC
  8
PL9
 10
212.761832852569114
 20
152.9448133867232116
 30
0.0
 11
213.761832852569114
 21
152.9448133867232116
 31
0.0
  0
LINE
  5
25FFD
  8
PL9
 10
213.761832852569114
 20
152.9448133867232116
 30
0.0
 11
213.761832852569114
 21
142.9448133867230979
 31
0.0
  0
LINE
  5
25FFE
  8
PL9
 10
213.761832852569114
 20
142.9448133867230979
 30
0.0
 11
212.761832852569114
 21
142.9448133867230979
 31
0.0
  0
LINE
  5
25FFF
  8
PL9
 10
212.7536994670815886
 20
142.9448133867230979
 30
0.0
 11
212.761832852569114
 21
147.9447714308105049
 31
0.0
  0
LINE
  5
26000
  8
PL2
 10
211.7424728759411039
 20
129.1243616229259032
 30
0.0
 11
211.7811928291972094
 21
156.5886974594779986
 31
0.0
  0
LINE
  5
26001
  8
PL2
 10
212.7413071945784111
 20
128.2797724662997041
 30
0.0
 11
212.7811928291972094
 21
156.5886974594779986
 31
0.0
  0
LINE
  5
26002
  8
壁
 10
213.7413071945784111
 20
128.2820121866031968
 30
0.0
 11
213.7811928291972094
 21
156.5886974594779986
 31
0.0
  0
LINE
  5
26003
  8
本体2
 62
     7
 10
210.2351841160150911
 20
127.6114304589456054
 30
0.0
 11
210.2351841160150911
 21
127.6095742460084068
 31
0.0
  0
LINE
  5
2600B
  8
本体2
  6
CONTINUOUS
 10
210.8135814310930982
 20
127.4434679260404977
 30
0.0
 11
210.8138054025617123
 21
127.5434676752240932
 31
0.0
  0
LINE
  5
2600C
  8
本体2
  6
CONTINUOUS
 10
211.3126042738377919
 20
127.006622602580606
 30
0.0
 11
211.3138041484795906
 21
127.5423478178811934
 31
0.0
  0
ARC
  5
2600D
  8
本体2
  6
CONTINUOUS
 10
211.2471376490233013
 20
127.5424971321936027
 30
0.0
 40
0.0666666666666667
 50
359.8716736938957865
 51
89.8716736939056489
  0
LINE
  5
2600E
  8
本体2
  6
CONTINUOUS
 10
210.8806212163291036
 20
127.6099848603674047
 30
0.0
 11
211.2472869633357107
 21
127.6091636316492952
 31
0.0
  0
ARC
  5
2600F
  8
本体2
  6
CONTINUOUS
 10
210.8804719020168079
 20
127.5433183609116981
 30
0.0
 40
0.0666666666666667
 50
89.8716736939056489
 51
179.8716736938991119
  0
LINE
  5
26010
  8
本体2
  6
CONTINUOUS
 10
210.4802489338138116
 20
127.4442144976024025
 30
0.0
 11
210.4804729052823973
 21
127.5442142467860975
 31
0.0
  0
ARC
  5
26011
  8
本体2
  6
CONTINUOUS
 10
210.4138064058267048
 20
127.5443635610985069
 30
0.0
 40
0.0666666666666667
 50
359.8716736938957865
 51
89.8716736939056489
  0
LINE
  5
26012
  8
本体2
  6
CONTINUOUS
 10
210.4802489338138116
 20
127.4442144976024025
 30
0.0
 11
210.8135814310930982
 21
127.4434679260404977
 31
0.0
  0
LINE
  5
26013
  8
本体2
  6
CONTINUOUS
 10
209.6471416620858008
 20
127.5460806756910017
 30
0.0
 11
209.6469176906171015
 21
127.4460809265073067
 31
0.0
  0
LINE
  5
26014
  8
本体2
  6
CONTINUOUS
 10
209.9802501878957912
 20
127.4453343549454019
 30
0.0
 11
209.9804741593644053
 21
127.5453341041289974
 31
0.0
  0
LINE
  5
26015
  8
本体2
  6
CONTINUOUS
 10
209.6469176906171015
 20
127.4460809265073067
 30
0.0
 11
209.9802501878957912
 21
127.4453343549454019
 31
0.0
  0
LINE
  5
26016
  8
本体2
  6
CONTINUOUS
 10
209.3129879360895131
 20
127.1801615002462995
 30
0.0
 11
209.3129879360895131
 21
127.1801615002462995
 31
0.0
  0
ARC
  5
26017
  8
本体2
  6
CONTINUOUS
 10
209.0464712525784137
 20
127.2474252569518001
 30
0.0
 40
0.0666666666666667
 50
179.8716736938991119
 51
269.8716736938990266
  0
LINE
  5
26018
  8
本体2
  6
CONTINUOUS
 10
208.9798047531226075
 20
127.2475745712640958
 30
0.0
 11
208.9798794102790112
 21
127.2809078209919988
 31
0.0
  0
LINE
  5
26019
  8
本体2
  6
CONTINUOUS
 10
209.0463219382660043
 20
127.1807587574959939
 30
0.0
 11
209.3129879360895131
 21
127.1801615002462995
 31
0.0
  0
ARC
  5
2601A
  8
本体2
  6
CONTINUOUS
 10
209.5804751626301936
 20
127.5462299900033969
 30
0.0
 40
0.0666666666666667
 50
359.8716736938957865
 51
89.8716736939056489
  0
LINE
  5
2601B
  8
本体2
  6
CONTINUOUS
 10
209.3139584791202026
 20
127.6134937467086985
 30
0.0
 11
209.5806244769424893
 21
127.6128964894591036
 31
0.0
  0
ARC
  5
2601C
  8
本体2
  6
CONTINUOUS
 10
210.0471406588200125
 20
127.5451847898167017
 30
0.0
 40
0.0666666666666667
 50
89.8716736939056489
 51
179.8716736938991119
  0
ARC
  5
2601D
  8
本体2
  6
CONTINUOUS
 10
209.3132119075580988
 20
127.2801612494299945
 30
0.0
 40
0.3333333333333333
 50
89.8716736939056489
 51
179.8716736938991119
  0
LINE
  5
2601E
  8
本体2
  6
CONTINUOUS
 10
210.0472899731323935
 20
127.6118512892722947
 30
0.0
 11
210.4139557201391142
 21
127.6110300605541994
 31
0.0
  0
ARC
  5
2601F
  8
本体2
  6
CONTINUOUS
 10
211.2459377743815025
 20
127.0067719168931006
 30
0.0
 40
0.0666666666666667
 50
299.8716736938931717
 51
359.8716736938957865
  0
ARC
  5
26021
  8
本体2
  6
CONTINUOUS
 10
210.995175732525297
 20
126.8627422665516065
 30
0.0
 40
0.0666666666666667
 50
220.4435201717568873
 51
299.8716736938931717
  0
ARC
  5
26022
  8
本体2
  6
CONTINUOUS
 10
209.7120402487238948
 20
126.7565860066065966
 30
0.0
 40
0.0666666666666667
 50
141.4631369750715919
 51
179.8716736938991119
  0
LINE
  5
2602A
  8
PL2
 10
212.7413071945784111
 20
128.2820121866031968
 30
0.0
 11
212.7416086924274907
 21
127.6150078778535999
 31
0.0
  0
LINE
  5
2602B
  8
壁
 10
213.7413071945784111
 20
128.2820121866031968
 30
0.0
 11
213.7416084881074028
 21
127.6154598956046016
 31
0.0
  0
LINE
  5
2606A
  8
PL2
 10
211.7438272321691102
 20
127.6145568628298008
 30
0.0
 11
211.7413071945784111
 21
128.2820121866031968
 31
0.0
  0
LINE
  5
2606B
  8
PL9
 10
208.7484897343045986
 20
168.2820121866031968
 30
0.0
 11
208.7480407173420076
 21
127.6132027138703933
 31
0.0
  0
LINE
  5
260AC
  8
PL2
 10
211.7424728759411039
 20
129.1243616229259032
 30
0.0
 11
211.7430334596377008
 21
128.2791103957075052
 31
0.0
  0
LINE
  5
260AD
  8
壁
 10
213.7811928291972094
 20
167.4273684647548066
 30
0.0
 11
213.7933895375946918
 21
181.941635713127198
 31
0.0
  0
LINE
  5
260AE
  8
PL9
 10
208.7484897343045986
 20
168.2820121866031968
 30
0.0
 11
213.7830817368325995
 21
168.2707361086754076
 31
0.0
  0
LINE
  5
260AF
  8
壁
 10
213.7872068282898113
 20
169.4096034275935097
 30
0.0
 11
221.0555273740345967
 21
176.692398142676609
 31
0.0
  0
LINE
  5
260B0
  8
壁
 10
213.7872068282898113
 20
174.5841182382384034
 30
0.0
 11
221.0555273740345967
 21
181.8669129533226112
 31
0.0
  0
LINE
  5
260B1
  8
壁
 10
213.7872068282898113
 20
171.9289894196583077
 30
0.0
 11
221.0555273740345967
 21
179.2117841347424871
 31
0.0
  0
LINE
  5
260B2
  8
壁
 10
213.7872068282898113
 20
169.4096034275935097
 30
0.0
 11
221.0555273740345967
 21
176.692398142676609
 31
0.0
  0
LINE
  5
260B3
  8
壁
 10
213.7872068282898113
 20
174.5841182382384034
 30
0.0
 11
221.0555273740345967
 21
181.8669129533226112
 31
0.0
  0
LINE
  5
260B4
  8
壁
 10
213.7872068282898113
 20
171.9289894196583077
 30
0.0
 11
221.0555273740345967
 21
179.2117841347424871
 31
0.0
  0
LINE
  5
260B5
  8
本体2
 62
     7
 10
210.2693427998918878
 20
168.2781021867077129
 30
0.0
 11
210.2693427998918878
 21
168.2762459737703864
 31
0.0
  0
LINE
  5
260B6
  8
本体2
  6
CONTINUOUS
 10
209.679532433144999
 20
167.423407048681014
 30
0.0
 11
209.6627260600683087
 21
159.919624968985687
 31
0.0
  0
ARC
  5
260B7
  8
本体2
  6
CONTINUOUS
 10
211.0931509787124014
 20
159.8497543833746874
 30
0.0
 40
0.0666666666666667
 50
359.8716736938957865
 51
89.8716736939056489
  0
ARC
  5
260B8
  8
本体2
  6
CONTINUOUS
 10
211.0925537214627923
 20
159.5830883855518891
 30
0.0
 40
0.0666666666666667
 50
269.8716736938990266
 51
359.8716736938957865
  0
LINE
  5
260B9
  8
本体2
  6
CONTINUOUS
 10
211.1598174781682928
 20
159.8496050690623065
 30
0.0
 11
211.1592202209187121
 21
159.5829390712395082
 31
0.0
  0
ARC
  5
260BA
  8
本体2
  6
CONTINUOUS
 10
209.3857022161193129
 20
159.5788357063673004
 30
0.0
 40
0.0586865436604158
 50
229.9431644799153958
 51
273.1391678669531871
  0
LINE
  5
260BB
  8
本体2
  6
CONTINUOUS
 10
209.6627260600683087
 20
159.919624968985687
 30
0.0
 11
211.0933002930248108
 21
159.9164208828304936
 31
0.0
  0
LINE
  5
260BC
  8
本体2
  6
CONTINUOUS
 10
209.3889159738916987
 20
159.5202372237268094
 30
0.0
 11
211.0924044071504113
 21
159.5164218860959977
 31
0.0
  0
LINE
  5
260BD
  8
本体2
  6
CONTINUOUS
 10
210.8477401149698949
 20
168.1101396538026052
 30
0.0
 11
210.847964086438509
 21
168.2101394029861865
 31
0.0
  0
LINE
  5
260BE
  8
本体2
  6
CONTINUOUS
 10
211.3467629577145033
 20
167.6732943303427135
 30
0.0
 11
211.3479628323563873
 21
168.2090195456432866
 31
0.0
  0
ARC
  5
260BF
  8
本体2
  6
CONTINUOUS
 10
211.2812963329000979
 20
168.209168859955696
 30
0.0
 40
0.0666666666666667
 50
359.8716736938957865
 51
89.8716736939056489
  0
LINE
  5
260C0
  8
本体2
  6
CONTINUOUS
 10
210.9147799002059003
 20
168.276656588129498
 30
0.0
 11
211.2814456472125073
 21
168.2758353594113032
 31
0.0
  0
ARC
  5
260C1
  8
本体2
  6
CONTINUOUS
 10
210.9146305858936046
 20
168.2099900886738055
 30
0.0
 40
0.0666666666666667
 50
89.8716736939056489
 51
179.8716736938991119
  0
LINE
  5
260C2
  8
本体2
  6
CONTINUOUS
 10
210.5144076176906083
 20
168.11088622536451
 30
0.0
 11
210.5146315891591939
 21
168.210885974548205
 31
0.0
  0
ARC
  5
260C3
  8
本体2
  6
CONTINUOUS
 10
210.4479650897035015
 20
168.211035288860586
 30
0.0
 40
0.0666666666666667
 50
359.8716736938957865
 51
89.8716736939056489
  0
LINE
  5
260C4
  8
本体2
  6
CONTINUOUS
 10
210.5144076176906083
 20
168.11088622536451
 30
0.0
 11
210.8477401149698949
 21
168.1101396538026052
 31
0.0
  0
LINE
  5
260C5
  8
本体2
  6
CONTINUOUS
 10
209.6813003459625122
 20
168.212752403453095
 30
0.0
 11
209.6810763744940118
 21
168.1127526542694
 31
0.0
  0
LINE
  5
260C6
  8
本体2
  6
CONTINUOUS
 10
210.0144088717725879
 20
168.1120060827074099
 30
0.0
 11
210.014632843241202
 21
168.2120058318911049
 31
0.0
  0
LINE
  5
260C7
  8
本体2
  6
CONTINUOUS
 10
209.6810763744940118
 20
168.1127526542694
 30
0.0
 11
210.0144088717725879
 21
168.1120060827074099
 31
0.0
  0
LINE
  5
260C8
  8
本体2
  6
CONTINUOUS
 10
209.3471466199663098
 20
167.8468332280083928
 30
0.0
 11
209.3471466199663098
 21
167.8468332280083928
 31
0.0
  0
ARC
  5
260C9
  8
本体2
  6
CONTINUOUS
 10
209.0806299364552103
 20
167.9140969847138081
 30
0.0
 40
0.0666666666666667
 50
179.8716736938991119
 51
269.8716736938990266
  0
LINE
  5
260CA
  8
本体2
  6
CONTINUOUS
 10
209.0139634369994042
 20
167.914246299026189
 30
0.0
 11
209.0140380941558078
 21
167.9475795487539926
 31
0.0
  0
LINE
  5
260CB
  8
本体2
  6
CONTINUOUS
 10
209.0804806221428009
 20
167.8474304852580019
 30
0.0
 11
209.3471466199663098
 21
167.8468332280083928
 31
0.0
  0
ARC
  5
260CC
  8
本体2
  6
CONTINUOUS
 10
209.6146338465069903
 20
168.2129017177655044
 30
0.0
 40
0.0666666666666667
 50
359.8716736938957865
 51
89.8716736939056489
  0
LINE
  5
260CD
  8
本体2
  6
CONTINUOUS
 10
209.3481171629969992
 20
168.2801654744706923
 30
0.0
 11
209.6147831608193997
 21
168.2795682172211116
 31
0.0
  0
ARC
  5
260CE
  8
本体2
  6
CONTINUOUS
 10
210.0812993426968944
 20
168.2118565175788092
 30
0.0
 40
0.0666666666666667
 50
89.8716736939056489
 51
179.8716736938991119
  0
ARC
  5
260CF
  8
本体2
  6
CONTINUOUS
 10
209.3473705914348955
 20
167.9468329771920878
 30
0.0
 40
0.3333333333333333
 50
89.8716736939056489
 51
179.8716736938991119
  0
LINE
  5
260D0
  8
本体2
  6
CONTINUOUS
 10
210.0814486570091901
 20
168.278523017034388
 30
0.0
 11
210.4481144040159108
 21
168.2777017883163069
 31
0.0
  0
ARC
  5
260D1
  8
本体2
  6
CONTINUOUS
 10
211.2800964582582992
 20
167.6734436446550944
 30
0.0
 40
0.0666666666666667
 50
299.8716736938931717
 51
359.8716736938957865
  0
LINE
  5
260D2
  8
本体2
  6
CONTINUOUS
 10
211.062538356142511
 20
167.471604455046986
 30
0.0
 11
211.3133003979984039
 21
167.6156341053892049
 31
0.0
  0
ARC
  5
260D3
  8
本体2
  6
CONTINUOUS
 10
211.0293344164020937
 20
167.5294139943136997
 30
0.0
 40
0.0666666666666667
 50
220.4435201717568873
 51
299.8716736938931717
  0
ARC
  5
260D4
  8
本体2
  6
CONTINUOUS
 10
209.7461989326006915
 20
167.4232577343686899
 30
0.0
 40
0.0666666666666667
 50
141.4631369750715919
 51
179.8716736938991119
  0
ARC
  5
260D6
  8
本体2
  6
CONTINUOUS
 10
210.3451319960711885
 20
166.9462153864334937
 30
0.0
 40
0.8323625699103494
 50
40.4435201717568233
 51
141.4631369750715919
  0
LINE
  5
260D7
  8
本体2
 10
209.3471466199663098
 20
167.8468332280083928
 30
0.0
 11
209.3479346562029093
 21
159.5339166477754986
 31
0.0
  0
LINE
  5
260D8
  8
PL1
 10
209.3471466199663098
 20
167.8468332280083928
 30
0.0
 11
209.0638132866270098
 21
167.8468332280083928
 31
0.0
  0
LINE
  5
260DA
  8
PL1
 10
209.3471466199663098
 20
167.8468332280083928
 30
0.0
 11
209.3471466199663098
 21
158.2806462809178072
 31
0.0
  0
LINE
  5
260DB
  8
PL2
 10
211.7811928291972094
 20
167.4318479053617921
 30
0.0
 11
211.7811928291972094
 21
158.2751946982033928
 31
0.0
  0
LINE
  5
260DC
  8
PL2
 10
212.7811928291972094
 20
167.4296081850582993
 30
0.0
 11
212.7811928291972094
 21
158.2729549779000138
 31
0.0
  0
LINE
  5
260DD
  8
寸法
 10
211.7811928291972094
 20
167.4318479053617921
 30
0.0
 11
213.7811928291972094
 21
167.4273684647548066
 31
0.0
  0
LINE
  5
260DE
  8
PL9
 10
208.7484897343045986
 20
168.2820121866031968
 30
0.0
 11
208.748381106530104
 21
158.2819873481952868
 31
0.0
  0
LINE
  5
260DF
  8
PL9
 10
208.7484897343045986
 20
168.2820121866031968
 30
0.0
 11
213.7830817368325995
 21
168.2707361086754076
 31
0.0
  0
LINE
  5
260E0
  8
本体2
 62
     7
 10
210.2245507625218011
 20
128.2791597737474945
 30
0.0
 11
210.2245590772756998
 21
128.2810159680620927
 31
0.0
  0
LINE
  5
260E1
  8
本体2
  6
CONTINUOUS
 10
209.6385748500347006
 20
129.1364883441763141
 30
0.0
 11
209.6553812231113056
 21
135.9736037572048986
 31
0.0
  0
ARC
  5
260E2
  8
本体2
  6
CONTINUOUS
 10
211.0861047703803024
 20
136.0370661705055966
 30
0.0
 40
0.0666666666666667
 50
269.8716736938924896
 51
359.8716736938990834
  0
ARC
  5
260E3
  8
本体2
  6
CONTINUOUS
 10
211.0867020276297126
 20
136.3037321683283949
 30
0.0
 40
0.0666666666666667
 50
359.8716736938990834
 51
89.8716736939056489
  0
LINE
  5
260E4
  8
本体2
  6
CONTINUOUS
 10
211.1527712698361086
 20
136.0369168561933009
 30
0.0
 11
211.1533685270856893
 21
136.3035828540160992
 31
0.0
  0
ARC
  5
260E5
  8
本体2
  6
CONTINUOUS
 10
209.3798866960476062
 20
136.3156305064370031
 30
0.0
 40
0.0586865436604158
 50
86.6041795208455483
 51
129.80018290788081
  0
LINE
  5
260E6
  8
本体2
  6
CONTINUOUS
 10
209.6553812231113056
 20
135.9736037572048986
 30
0.0
 11
211.0859554560678077
 21
135.9703996710497904
 31
0.0
  0
LINE
  5
260E7
  8
本体2
  6
CONTINUOUS
 10
209.3833629086834947
 20
136.374214005414899
 30
0.0
 11
211.0868513419422072
 21
136.3703986677842863
 31
0.0
  0
LINE
  5
260E8
  8
本体2
  6
CONTINUOUS
 10
210.803694649161713
 20
128.4445297381209912
 30
0.0
 11
210.8034706776932126
 21
128.3445299889374098
 31
0.0
  0
LINE
  5
260E9
  8
本体2
  6
CONTINUOUS
 10
211.3046692982528043
 20
128.8791353468949978
 30
0.0
 11
211.3034694236110909
 21
128.3434101315943963
 31
0.0
  0
ARC
  5
260EA
  8
本体2
  6
CONTINUOUS
 10
211.2368029241546878
 20
128.3435594459068056
 30
0.0
 40
0.0666666666666667
 50
269.8716736938924896
 51
359.8716736938990834
  0
LINE
  5
260EB
  8
本体2
  6
CONTINUOUS
 10
210.8699878628358135
 20
128.2777141751693932
 30
0.0
 11
211.2366536098423921
 21
128.2768929464511984
 31
0.0
  0
ARC
  5
260EC
  8
本体2
  6
CONTINUOUS
 10
210.8701371771481945
 20
128.3443806746250004
 30
0.0
 40
0.0666666666666667
 50
179.8716736938957865
 51
269.8716736938924896
  0
LINE
  5
260ED
  8
本体2
  6
CONTINUOUS
 10
210.4703621518825116
 20
128.4452763096830097
 30
0.0
 11
210.4701381804138975
 21
128.3452765604992862
 31
0.0
  0
ARC
  5
260EE
  8
本体2
  6
CONTINUOUS
 10
210.4034716809582051
 20
128.3454258748116956
 30
0.0
 40
0.0666666666666667
 50
269.8716736938924896
 51
359.8716736938990834
  0
LINE
  5
260EF
  8
本体2
  6
CONTINUOUS
 10
210.4703621518825116
 20
128.4452763096830097
 30
0.0
 11
210.803694649161713
 21
128.4445297381209912
 31
0.0
  0
LINE
  5
260F0
  8
本体2
  6
CONTINUOUS
 10
209.6368069372171874
 20
128.3471429894042899
 30
0.0
 11
209.6370309086858015
 21
128.4471427385878997
 31
0.0
  0
LINE
  5
260F1
  8
本体2
  6
CONTINUOUS
 10
209.9703634059644912
 20
128.4463961670259948
 30
0.0
 11
209.9701394344959056
 21
128.3463964178422998
 31
0.0
  0
LINE
  5
260F2
  8
本体2
  6
CONTINUOUS
 10
209.6370309086858015
 20
128.4471427385878997
 30
0.0
 11
209.9703634059644912
 21
128.4463961670259948
 31
0.0
  0
LINE
  5
260F3
  8
本体2
  6
CONTINUOUS
 10
209.304295668657403
 20
128.7145553079728018
 30
0.0
 11
209.304295668657403
 21
128.7145553079728018
 31
0.0
  0
ARC
  5
260F4
  8
本体2
  6
CONTINUOUS
 10
209.0374803565213995
 20
128.648486065766491
 30
0.0
 40
0.0666666666666667
 50
89.8716736939056489
 51
179.8716736938957865
  0
LINE
  5
260F5
  8
本体2
  6
CONTINUOUS
 10
208.970813857065707
 20
128.6486353800790141
 30
0.0
 11
208.9707391999095023
 21
128.6153021303510968
 31
0.0
  0
LINE
  5
260F6
  8
本体2
  6
CONTINUOUS
 10
209.0376296708338089
 20
128.7151525652222972
 30
0.0
 11
209.304295668657403
 21
128.7145553079728018
 31
0.0
  0
ARC
  5
260F7
  8
本体2
  6
CONTINUOUS
 10
209.5701404377616939
 20
128.347292303716614
 30
0.0
 40
0.0666666666666667
 50
269.8716736938924896
 51
359.8716736938990834
  0
LINE
  5
260F8
  8
本体2
  6
CONTINUOUS
 10
209.3033251256269125
 20
128.2812230615105022
 30
0.0
 11
209.5699911234491992
 21
128.2806258042610068
 31
0.0
  0
ARC
  5
260F9
  8
本体2
  6
CONTINUOUS
 10
210.0368059339515128
 20
128.3462471035298904
 30
0.0
 40
0.0666666666666667
 50
179.8716736938957865
 51
269.8716736938924896
  0
ARC
  5
260FA
  8
本体2
  6
CONTINUOUS
 10
209.3040716971887036
 20
128.6145555587891067
 30
0.0
 40
0.3333333333333333
 50
179.8716736938957865
 51
269.8716736938924896
  0
LINE
  5
260FB
  8
本体2
  6
CONTINUOUS
 10
210.0366566196391034
 20
128.2795806040743116
 30
0.0
 11
210.4033223666457957
 21
128.2787593753560031
 31
0.0
  0
ARC
  5
260FC
  8
本体2
  6
CONTINUOUS
 10
211.2380027987964866
 20
128.8792846612074072
 30
0.0
 40
0.0666666666666667
 50
359.8716736938990834
 51
59.871673693901883
  0
LINE
  5
260FD
  8
本体2
  6
CONTINUOUS
 10
211.0213510014903022
 20
129.0820963595431863
 30
0.0
 11
211.2714653585119038
 21
128.9369448861608873
 31
0.0
  0
ARC
  5
260FE
  8
本体2
  6
CONTINUOUS
 10
210.9878884417744871
 20
129.0244361345889104
 30
0.0
 40
0.0666666666666667
 50
59.871673693901883
 51
139.2998272160405122
  0
ARC
  5
260FF
  8
本体2
  6
CONTINUOUS
 10
209.7052413494905068
 20
129.1363390298639047
 30
0.0
 40
0.0666666666666667
 50
179.8716736938957865
 51
218.2802104127273992
  0
ARC
  5
26101
  8
本体2
  6
CONTINUOUS
 10
210.306305276224208
 20
129.6106937201759877
 30
0.0
 40
0.8323625699103491
 50
218.2802104127273992
 51
319.2998272160405122
  0
LINE
  5
26102
  8
本体2
 10
209.304295668657403
 20
128.7145553079728018
 30
0.0
 11
209.3423207262854078
 21
136.3607182910646998
 31
0.0
  0
LINE
  5
26103
  8
PL1
 10
209.3046512059000861
 20
128.7145536816524896
 30
0.0
 11
209.0281877585111943
 21
128.7157920894572953
 31
0.0
  0
LINE
  5
26105
  8
PL1
 10
209.3046512059000861
 20
128.7145536816524896
 30
0.0
 11
209.3475021572091066
 21
158.2806446545974097
 31
0.0
  0
LINE
  5
26106
  8
PL2
 10
211.7401763507504029
 20
129.1186333564845938
 30
0.0
 11
211.7811928291972094
 21
158.2751946982033928
 31
0.0
  0
LINE
  5
26107
  8
PL2
 10
212.7401763507504029
 20
129.1163936361811011
 30
0.0
 11
212.7811928291972094
 21
158.2729549778999001
 31
0.0
  0
LINE
  5
2613E
  8
0
  6
CONTINUOUS
 10
209.0138132866325122
 20
130.463499894669809
 30
0.0
 11
209.1471466199660085
 21
130.5968332280029074
 31
0.0
  0
LINE
  5
2613F
  8
0
  6
CONTINUOUS
 10
209.0138132866325122
 20
129.7301665613362047
 30
0.0
 11
209.0138132866325122
 21
130.463499894669809
 31
0.0
  0
LINE
  5
26140
  8
0
  6
CONTINUOUS
 10
209.0138132866325122
 20
129.7301665613362047
 30
0.0
 11
209.1471466199660085
 21
129.5968332280025095
 31
0.0
  0
LINE
  5
26141
  8
0
  6
CONTINUOUS
 10
209.0138132866325122
 20
129.4634998946692122
 30
0.0
 11
209.1471466199660085
 21
129.5968332280025095
 31
0.0
  0
LINE
  5
26142
  8
0
  6
CONTINUOUS
 10
209.0138132866325122
 20
128.7301665613358921
 30
0.0
 11
209.0138132866325122
 21
129.4634998946692122
 31
0.0
  0
LINE
  5
26143
  8
0
  6
CONTINUOUS
 10
209.0138132866325122
 20
128.7301665613358921
 30
0.0
 11
209.0293275102627888
 21
128.7146523377057008
 31
0.0
  0
LINE
  5
2616B
  8
0
  6
CONTINUOUS
 10
209.0138132866325122
 20
131.4634998946700932
 30
0.0
 11
209.1471466199660085
 21
131.5968332280031063
 31
0.0
  0
LINE
  5
2616C
  8
0
  6
CONTINUOUS
 10
209.0138132866325122
 20
130.7301665613364889
 30
0.0
 11
209.0138132866325122
 21
131.4634998946700932
 31
0.0
  0
LINE
  5
2616D
  8
0
  6
CONTINUOUS
 10
209.0138132866325122
 20
130.7301665613364889
 30
0.0
 11
209.1471466199660085
 21
130.5968332280029074
 31
0.0
  0
LINE
  5
26171
  8
0
  6
CONTINUOUS
 10
209.0138132866347007
 20
146.7968332280084098
 30
0.0
 11
209.147146619968197
 21
146.9301665613413945
 31
0.0
  0
LINE
  5
26172
  8
0
  6
CONTINUOUS
 10
209.0138132866347007
 20
146.0634998946748055
 30
0.0
 11
209.0138132866347007
 21
146.7968332280084098
 31
0.0
  0
LINE
  5
26173
  8
0
  6
CONTINUOUS
 10
209.0138132866347007
 20
146.0634998946748055
 30
0.0
 11
209.147146619968197
 21
145.9301665613411956
 31
0.0
  0
LINE
  5
26174
  8
0
  6
CONTINUOUS
 10
209.0138132866347007
 20
145.796833228007813
 30
0.0
 11
209.147146619968197
 21
145.9301665613411956
 31
0.0
  0
LINE
  5
26175
  8
0
  6
CONTINUOUS
 10
209.0138132866347007
 20
145.0634998946744929
 30
0.0
 11
209.0138132866347007
 21
145.796833228007813
 31
0.0
  0
LINE
  5
26176
  8
0
  6
CONTINUOUS
 10
209.0138132866347007
 20
145.0634998946744929
 30
0.0
 11
209.147146619968197
 21
144.9301665613411956
 31
0.0
  0
LINE
  5
26177
  8
0
  6
CONTINUOUS
 10
209.0138132866347007
 20
144.796833228007813
 30
0.0
 11
209.147146619968197
 21
144.9301665613411956
 31
0.0
  0
LINE
  5
26178
  8
0
  6
CONTINUOUS
 10
209.0138132866347007
 20
144.0634998946734981
 30
0.0
 11
209.0138132866347007
 21
144.796833228007813
 31
0.0
  0
LINE
  5
26179
  8
0
  6
CONTINUOUS
 10
209.0138132866347007
 20
144.0634998946734981
 30
0.0
 11
209.147146619968197
 21
143.9301665613405135
 31
0.0
  0
LINE
  5
2617A
  8
0
  6
CONTINUOUS
 10
209.0138132866347007
 20
143.7968332280067045
 30
0.0
 11
209.147146619968197
 21
143.9301665613405135
 31
0.0
  0
LINE
  5
2617B
  8
0
  6
CONTINUOUS
 10
209.0138132866347007
 20
143.0634998946734981
 30
0.0
 11
209.0138132866347007
 21
143.7968332280067045
 31
0.0
  0
LINE
  5
2617C
  8
0
  6
CONTINUOUS
 10
209.0138132866347007
 20
143.0634998946734981
 30
0.0
 11
209.147146619968197
 21
142.9301665613405135
 31
0.0
  0
LINE
  5
2617D
  8
0
  6
CONTINUOUS
 10
209.0138132866347007
 20
142.7968332280061929
 30
0.0
 11
209.147146619968197
 21
142.9301665613405135
 31
0.0
  0
LINE
  5
2617E
  8
0
  6
CONTINUOUS
 10
209.0138132866347007
 20
142.0634998946729866
 30
0.0
 11
209.0138132866347007
 21
142.7968332280061929
 31
0.0
  0
LINE
  5
2617F
  8
0
  6
CONTINUOUS
 10
209.0138132866347007
 20
142.0634998946729866
 30
0.0
 11
209.147146619968197
 21
141.930166561339604
 31
0.0
  0
LINE
  5
26180
  8
0
  6
CONTINUOUS
 10
209.0138132866347007
 20
141.7968332280063066
 30
0.0
 11
209.147146619968197
 21
141.930166561339604
 31
0.0
  0
LINE
  5
26181
  8
0
  6
CONTINUOUS
 10
209.0138132866347007
 20
141.0634998946729866
 30
0.0
 11
209.0138132866347007
 21
141.7968332280063066
 31
0.0
  0
LINE
  5
26182
  8
0
  6
CONTINUOUS
 10
209.0138132866347007
 20
141.0634998946729866
 30
0.0
 11
209.147146619968197
 21
140.9301665613390071
 31
0.0
  0
LINE
  5
26183
  8
0
  6
CONTINUOUS
 10
209.0138132866347007
 20
140.7968332280057098
 30
0.0
 11
209.147146619968197
 21
140.9301665613390071
 31
0.0
  0
LINE
  5
26184
  8
0
  6
CONTINUOUS
 10
209.0138132866347007
 20
140.0634998946723897
 30
0.0
 11
209.0138132866347007
 21
140.7968332280057098
 31
0.0
  0
LINE
  5
26185
  8
0
  6
CONTINUOUS
 10
209.0138132866347007
 20
140.0634998946723897
 30
0.0
 11
209.147146619968197
 21
139.9301665613390071
 31
0.0
  0
LINE
  5
26186
  8
0
  6
CONTINUOUS
 10
209.0138132866347007
 20
139.7968332280057098
 30
0.0
 11
209.147146619968197
 21
139.9301665613390071
 31
0.0
  0
LINE
  5
26187
  8
0
  6
CONTINUOUS
 10
209.0138132866347007
 20
139.0634998946723897
 30
0.0
 11
209.0138132866347007
 21
139.7968332280057098
 31
0.0
  0
LINE
  5
26188
  8
0
  6
CONTINUOUS
 10
209.0138132866347007
 20
139.0634998946723897
 30
0.0
 11
209.147146619968197
 21
138.9301665613384102
 31
0.0
  0
LINE
  5
26189
  8
0
  6
CONTINUOUS
 10
209.0138132866347007
 20
138.796833228004914
 30
0.0
 11
209.147146619968197
 21
138.9301665613384102
 31
0.0
  0
LINE
  5
2618A
  8
0
  6
CONTINUOUS
 10
209.0138132866347007
 20
138.0634998946717076
 30
0.0
 11
209.0138132866347007
 21
138.796833228004914
 31
0.0
  0
LINE
  5
2618B
  8
0
  6
CONTINUOUS
 10
209.0138132866347007
 20
138.0634998946717076
 30
0.0
 11
209.147146619968197
 21
137.9301665613384102
 31
0.0
  0
LINE
  5
2618C
  8
0
  6
CONTINUOUS
 10
209.0138132866347007
 20
137.796833228004914
 30
0.0
 11
209.147146619968197
 21
137.9301665613384102
 31
0.0
  0
LINE
  5
2618D
  8
0
  6
CONTINUOUS
 10
209.0138132866347007
 20
137.0634998946717076
 30
0.0
 11
209.0138132866347007
 21
137.796833228004914
 31
0.0
  0
LINE
  5
2618E
  8
0
  6
CONTINUOUS
 10
209.0138132866347007
 20
137.0634998946717076
 30
0.0
 11
209.147146619968197
 21
136.9301665613378134
 31
0.0
  0
LINE
  5
2618F
  8
0
  6
CONTINUOUS
 10
209.0138132866347007
 20
136.7968332280040045
 30
0.0
 11
209.147146619968197
 21
136.9301665613378134
 31
0.0
  0
LINE
  5
26190
  8
0
  6
CONTINUOUS
 10
209.0138132866347007
 20
136.0634998946709118
 30
0.0
 11
209.0138132866347007
 21
136.7968332280040045
 31
0.0
  0
LINE
  5
26191
  8
0
  6
CONTINUOUS
 10
209.0138132866347007
 20
136.0634998946709118
 30
0.0
 11
209.147146619968197
 21
135.9301665613378134
 31
0.0
  0
LINE
  5
26192
  8
0
  6
CONTINUOUS
 10
209.0138132866347007
 20
135.7968332280040045
 30
0.0
 11
209.147146619968197
 21
135.9301665613378134
 31
0.0
  0
LINE
  5
26193
  8
0
  6
CONTINUOUS
 10
209.0138132866347007
 20
135.7301665613375121
 30
0.0
 11
209.0138132866347007
 21
135.7968332280040045
 31
0.0
  0
LINE
  5
26194
  8
0
  6
CONTINUOUS
 10
209.0138132866347007
 20
135.7301665613375121
 30
0.0
 11
209.147146619968197
 21
135.5968332280035895
 31
0.0
  0
LINE
  5
26195
  8
0
  6
CONTINUOUS
 10
209.0138132866347007
 20
135.4634998946704059
 30
0.0
 11
209.147146619968197
 21
135.5968332280035895
 31
0.0
  0
LINE
  5
26196
  8
0
  6
CONTINUOUS
 10
209.0138132866347007
 20
134.7301665613370858
 30
0.0
 11
209.0138132866347007
 21
135.4634998946704059
 31
0.0
  0
LINE
  5
26197
  8
0
  6
CONTINUOUS
 10
209.0138132866347007
 20
134.7301665613370858
 30
0.0
 11
209.147146619968197
 21
134.5968332280035895
 31
0.0
  0
LINE
  5
26198
  8
0
  6
CONTINUOUS
 10
209.0138132866347007
 20
134.4634998946696953
 30
0.0
 11
209.147146619968197
 21
134.5968332280035895
 31
0.0
  0
LINE
  5
26199
  8
0
  6
CONTINUOUS
 10
209.0138132866347007
 20
133.7301665613370858
 30
0.0
 11
209.0138132866347007
 21
134.4634998946696953
 31
0.0
  0
LINE
  5
2619A
  8
0
  6
CONTINUOUS
 10
209.0138132866347007
 20
133.7301665613370858
 30
0.0
 11
209.147146619968197
 21
133.5968332280029927
 31
0.0
  0
LINE
  5
2619B
  8
0
  6
CONTINUOUS
 10
209.0138132866347007
 20
133.4634998946696953
 30
0.0
 11
209.147146619968197
 21
133.5968332280029927
 31
0.0
  0
LINE
  5
2619C
  8
0
  6
CONTINUOUS
 10
209.0138132866347007
 20
132.7301665613364037
 30
0.0
 11
209.0138132866347007
 21
133.4634998946696953
 31
0.0
  0
LINE
  5
2619D
  8
0
  6
CONTINUOUS
 10
209.0138132866347007
 20
132.7301665613364037
 30
0.0
 11
209.147146619968197
 21
132.5968332280029927
 31
0.0
  0
LINE
  5
2619E
  8
0
  6
CONTINUOUS
 10
209.0138132866347007
 20
147.7968332280086941
 30
0.0
 11
209.147146619968197
 21
147.9301665613417072
 31
0.0
  0
LINE
  5
2619F
  8
0
  6
CONTINUOUS
 10
209.0138132866347007
 20
147.0634998946750898
 30
0.0
 11
209.0138132866347007
 21
147.7968332280086941
 31
0.0
  0
LINE
  5
261A0
  8
0
  6
CONTINUOUS
 10
209.0138132866347007
 20
147.0634998946750898
 30
0.0
 11
209.147146619968197
 21
146.9301665613413945
 31
0.0
  0
LINE
  5
261A1
  8
0
  6
CONTINUOUS
 10
209.0138132866347007
 20
132.4634998946696953
 30
0.0
 11
209.147146619968197
 21
132.5968332280029927
 31
0.0
  0
LINE
  5
261A2
  8
0
  6
CONTINUOUS
 10
209.0138132866347007
 20
131.7301665613364037
 30
0.0
 11
209.0138132866347007
 21
132.4634998946696953
 31
0.0
  0
LINE
  5
261A3
  8
0
  6
CONTINUOUS
 10
209.0138132866347007
 20
131.7301665613364037
 30
0.0
 11
209.147146619968197
 21
131.5968332280029927
 31
0.0
  0
LINE
  5
261A4
  8
0
  6
CONTINUOUS
 10
209.0138132866304943
 20
163.7968332280140089
 30
0.0
 11
209.1471466199639053
 21
163.9301665613471073
 31
0.0
  0
LINE
  5
261A5
  8
0
  6
CONTINUOUS
 10
209.0138132866304943
 20
163.0634998946804046
 30
0.0
 11
209.0138132866304943
 21
163.7968332280140089
 31
0.0
  0
LINE
  5
261A6
  8
0
  6
CONTINUOUS
 10
209.0138132866304943
 20
163.0634998946804046
 30
0.0
 11
209.1471466199639053
 21
162.9301665613467947
 31
0.0
  0
LINE
  5
261A7
  8
0
  6
CONTINUOUS
 10
209.0138132866304943
 20
162.7968332280134121
 30
0.0
 11
209.1471466199639053
 21
162.9301665613467947
 31
0.0
  0
LINE
  5
261A8
  8
0
  6
CONTINUOUS
 10
209.0138132866304943
 20
162.063499894680092
 30
0.0
 11
209.0138132866304943
 21
162.7968332280134121
 31
0.0
  0
LINE
  5
261A9
  8
0
  6
CONTINUOUS
 10
209.0138132866304943
 20
162.063499894680092
 30
0.0
 11
209.1471466199639053
 21
161.9301665613467094
 31
0.0
  0
LINE
  5
261AA
  8
0
  6
CONTINUOUS
 10
209.0138132866304943
 20
161.7968332280134121
 30
0.0
 11
209.1471466199639053
 21
161.9301665613467094
 31
0.0
  0
LINE
  5
261AB
  8
0
  6
CONTINUOUS
 10
209.0138132866304943
 20
161.0634998946790972
 30
0.0
 11
209.0138132866304943
 21
161.7968332280134121
 31
0.0
  0
LINE
  5
261AC
  8
0
  6
CONTINUOUS
 10
209.0138132866304943
 20
161.0634998946790972
 30
0.0
 11
209.1471466199639053
 21
160.9301665613461978
 31
0.0
  0
LINE
  5
261AD
  8
0
  6
CONTINUOUS
 10
209.0138132866304943
 20
160.7968332280123036
 30
0.0
 11
209.1471466199639053
 21
160.9301665613461978
 31
0.0
  0
LINE
  5
261AE
  8
0
  6
CONTINUOUS
 10
209.0138132866304943
 20
160.063499894679012
 30
0.0
 11
209.0138132866304943
 21
160.7968332280123036
 31
0.0
  0
LINE
  5
261AF
  8
0
  6
CONTINUOUS
 10
209.0138132866304943
 20
160.063499894679012
 30
0.0
 11
209.1471466199639053
 21
159.9301665613461978
 31
0.0
  0
LINE
  5
261B0
  8
0
  6
CONTINUOUS
 10
209.0138132866304943
 20
159.7968332280119057
 30
0.0
 11
209.1471466199639053
 21
159.9301665613461978
 31
0.0
  0
LINE
  5
261B1
  8
0
  6
CONTINUOUS
 10
209.0138132866304943
 20
159.0634998946786141
 30
0.0
 11
209.0138132866304943
 21
159.7968332280119057
 31
0.0
  0
LINE
  5
261B2
  8
0
  6
CONTINUOUS
 10
209.0138132866304943
 20
159.0634998946786141
 30
0.0
 11
209.1471466199639053
 21
158.9301665613452883
 31
0.0
  0
LINE
  5
261B3
  8
0
  6
CONTINUOUS
 10
209.0138132866304943
 20
158.7968332280119057
 30
0.0
 11
209.1471466199639053
 21
158.9301665613452883
 31
0.0
  0
LINE
  5
261B4
  8
0
  6
CONTINUOUS
 10
209.0138132866304943
 20
158.0634998946786141
 30
0.0
 11
209.0138132866304943
 21
158.7968332280119057
 31
0.0
  0
LINE
  5
261B5
  8
0
  6
CONTINUOUS
 10
209.0138132866304943
 20
158.0634998946786141
 30
0.0
 11
209.1471466199639053
 21
157.9301665613446062
 31
0.0
  0
LINE
  5
261B6
  8
0
  6
CONTINUOUS
 10
209.0138132866304943
 20
157.7968332280113088
 30
0.0
 11
209.1471466199639053
 21
157.9301665613446062
 31
0.0
  0
LINE
  5
261B7
  8
0
  6
CONTINUOUS
 10
209.0138132866304943
 20
157.0634998946779888
 30
0.0
 11
209.0138132866304943
 21
157.7968332280113088
 31
0.0
  0
LINE
  5
261B8
  8
0
  6
CONTINUOUS
 10
209.0138132866304943
 20
157.0634998946779888
 30
0.0
 11
209.1471466199639053
 21
156.9301665613446062
 31
0.0
  0
LINE
  5
261B9
  8
0
  6
CONTINUOUS
 10
209.0138132866304943
 20
156.7968332280113088
 30
0.0
 11
209.1471466199639053
 21
156.9301665613446062
 31
0.0
  0
LINE
  5
261BA
  8
0
  6
CONTINUOUS
 10
209.0138132866304943
 20
156.0634998946779888
 30
0.0
 11
209.0138132866304943
 21
156.7968332280113088
 31
0.0
  0
LINE
  5
261BB
  8
0
  6
CONTINUOUS
 10
209.0138132866304943
 20
156.0634998946779888
 30
0.0
 11
209.1471466199639053
 21
155.9301665613440093
 31
0.0
  0
LINE
  5
261BC
  8
0
  6
CONTINUOUS
 10
209.0138132866304943
 20
155.796833228010513
 30
0.0
 11
209.1471466199639053
 21
155.9301665613440093
 31
0.0
  0
LINE
  5
261BD
  8
0
  6
CONTINUOUS
 10
209.0138132866304943
 20
155.063499894677193
 30
0.0
 11
209.0138132866304943
 21
155.796833228010513
 31
0.0
  0
LINE
  5
261BE
  8
0
  6
CONTINUOUS
 10
209.0138132866304943
 20
155.063499894677193
 30
0.0
 11
209.1471466199639053
 21
154.9301665613440093
 31
0.0
  0
LINE
  5
261BF
  8
0
  6
CONTINUOUS
 10
209.0138132866304943
 20
154.796833228010513
 30
0.0
 11
209.1471466199639053
 21
154.9301665613440093
 31
0.0
  0
LINE
  5
261C0
  8
0
  6
CONTINUOUS
 10
209.0138132866304943
 20
154.063499894677193
 30
0.0
 11
209.0138132866304943
 21
154.796833228010513
 31
0.0
  0
LINE
  5
261C1
  8
0
  6
CONTINUOUS
 10
209.0138132866304943
 20
154.063499894677193
 30
0.0
 11
209.1471466199639053
 21
153.9301665613434125
 31
0.0
  0
LINE
  5
261C2
  8
0
  6
CONTINUOUS
 10
209.0138132866304943
 20
153.7968332280096035
 30
0.0
 11
209.1471466199639053
 21
153.9301665613434125
 31
0.0
  0
LINE
  5
261C3
  8
0
  6
CONTINUOUS
 10
209.0138132866304943
 20
153.0634998946765108
 30
0.0
 11
209.0138132866304943
 21
153.7968332280096035
 31
0.0
  0
LINE
  5
261C4
  8
0
  6
CONTINUOUS
 10
209.0138132866304943
 20
153.0634998946765108
 30
0.0
 11
209.1471466199639053
 21
152.9301665613434977
 31
0.0
  0
LINE
  5
261C5
  8
0
  6
CONTINUOUS
 10
209.0138132866304943
 20
152.7968332280096035
 30
0.0
 11
209.1471466199639053
 21
152.9301665613434977
 31
0.0
  0
LINE
  5
261C6
  8
0
  6
CONTINUOUS
 10
209.0138132866304943
 20
152.0634998946765108
 30
0.0
 11
209.0138132866304943
 21
152.7968332280096035
 31
0.0
  0
LINE
  5
261C7
  8
0
  6
CONTINUOUS
 10
209.0138132866304943
 20
152.0634998946765108
 30
0.0
 11
209.1471466199639053
 21
151.930166561342503
 31
0.0
  0
LINE
  5
261C8
  8
0
  6
CONTINUOUS
 10
209.0138132866304943
 20
151.7968332280092909
 30
0.0
 11
209.1471466199639053
 21
151.930166561342503
 31
0.0
  0
LINE
  5
261C9
  8
0
  6
CONTINUOUS
 10
209.0138132866304943
 20
151.0634998946759993
 30
0.0
 11
209.0138132866304943
 21
151.7968332280092909
 31
0.0
  0
LINE
  5
261CA
  8
0
  6
CONTINUOUS
 10
209.0138132866304943
 20
151.0634998946759993
 30
0.0
 11
209.1471466199639053
 21
150.930166561342503
 31
0.0
  0
LINE
  5
261CB
  8
0
  6
CONTINUOUS
 10
209.0138132866304943
 20
150.7968332280084951
 30
0.0
 11
209.1471466199639053
 21
150.930166561342503
 31
0.0
  0
LINE
  5
261CC
  8
0
  6
CONTINUOUS
 10
209.0138132866304943
 20
150.0634998946759993
 30
0.0
 11
209.0138132866304943
 21
150.7968332280084951
 31
0.0
  0
LINE
  5
261CD
  8
0
  6
CONTINUOUS
 10
209.0138132866304943
 20
150.0634998946759993
 30
0.0
 11
209.1471466199639053
 21
149.9301665613419061
 31
0.0
  0
LINE
  5
261CE
  8
0
  6
CONTINUOUS
 10
209.0138132866304943
 20
149.7968332280084951
 30
0.0
 11
209.1471466199639053
 21
149.9301665613419061
 31
0.0
  0
LINE
  5
261CF
  8
0
  6
CONTINUOUS
 10
209.0138132866304943
 20
149.0634998946752887
 30
0.0
 11
209.0138132866304943
 21
149.7968332280084951
 31
0.0
  0
LINE
  5
261D0
  8
0
  6
CONTINUOUS
 10
209.0138132866304943
 20
149.0634998946752887
 30
0.0
 11
209.1471466199639053
 21
148.9301665613419061
 31
0.0
  0
LINE
  5
261D1
  8
0
  6
CONTINUOUS
 10
209.0138132866304943
 20
164.7968332280142931
 30
0.0
 11
209.1471466199639053
 21
164.9301665613473915
 31
0.0
  0
LINE
  5
261D2
  8
0
  6
CONTINUOUS
 10
209.0138132866304943
 20
164.0634998946808025
 30
0.0
 11
209.0138132866304943
 21
164.7968332280142931
 31
0.0
  0
LINE
  5
261D3
  8
0
  6
CONTINUOUS
 10
209.0138132866304943
 20
164.0634998946808025
 30
0.0
 11
209.1471466199639053
 21
163.9301665613471073
 31
0.0
  0
LINE
  5
261D4
  8
0
  6
CONTINUOUS
 10
209.0138132866304943
 20
148.7968332280084951
 30
0.0
 11
209.1471466199639053
 21
148.9301665613419061
 31
0.0
  0
LINE
  5
261D5
  8
0
  6
CONTINUOUS
 10
209.0138132866304943
 20
148.0634998946752887
 30
0.0
 11
209.0138132866304943
 21
148.7968332280084951
 31
0.0
  0
LINE
  5
261D6
  8
0
  6
CONTINUOUS
 10
209.0138132866304943
 20
148.0634998946752887
 30
0.0
 11
209.1471466199639053
 21
147.9301665613419061
 31
0.0
  0
LINE
  5
261FE
  8
0
  6
CONTINUOUS
 10
209.0138132866325122
 20
167.7968332280138952
 30
0.0
 11
209.0638132866270098
 21
167.8468332280083928
 31
0.0
  0
LINE
  5
261FF
  8
0
  6
CONTINUOUS
 10
209.0138132866325122
 20
167.0634998946813141
 30
0.0
 11
209.0138132866325122
 21
167.7968332280138952
 31
0.0
  0
LINE
  5
26200
  8
0
  6
CONTINUOUS
 10
209.0138132866325122
 20
167.0634998946813141
 30
0.0
 11
209.1471466199660085
 21
166.9301665613471926
 31
0.0
  0
LINE
  5
26201
  8
0
  6
CONTINUOUS
 10
209.0138132866325122
 20
166.7968332280138952
 30
0.0
 11
209.1471466199660085
 21
166.9301665613471926
 31
0.0
  0
LINE
  5
26202
  8
0
  6
CONTINUOUS
 10
209.0138132866325122
 20
166.0634998946806036
 30
0.0
 11
209.0138132866325122
 21
166.7968332280138952
 31
0.0
  0
LINE
  5
26203
  8
0
  6
CONTINUOUS
 10
209.0138132866325122
 20
166.0634998946806036
 30
0.0
 11
209.1471466199660085
 21
165.9301665613471926
 31
0.0
  0
LINE
  5
26207
  8
0
  6
CONTINUOUS
 10
209.0138132866325122
 20
165.7968332280138952
 30
0.0
 11
209.1471466199660085
 21
165.9301665613471926
 31
0.0
  0
LINE
  5
26208
  8
0
  6
CONTINUOUS
 10
209.0138132866325122
 20
165.0634998946806036
 30
0.0
 11
209.0138132866325122
 21
165.7968332280138952
 31
0.0
  0
LINE
  5
26209
  8
0
  6
CONTINUOUS
 10
209.0138132866325122
 20
165.0634998946806036
 30
0.0
 11
209.1471466199660085
 21
164.9301665613471926
 31
0.0
  0
LINE
  5
26240
  8
本体1
 10
209.0638132866270098
 20
167.8468332280083928
 30
0.0
 11
209.3471466199663098
 21
167.8468332280083928
 31
0.0
  0
LINE
  5
262C0
  8
本体2
  6
CONTINUOUS
 10
209.6370309092199022
 20
128.4456493570459941
 30
0.0
 11
209.9703634059644912
 21
128.4463961670259948
 31
0.0
  0
LINE
  5
27099
  8
寸法
 10
212.7692948877634933
 20
147.9452373297287124
 30
0.0
 11
213.761832852569114
 21
147.9448133867232116
 31
0.0
  0
LINE
  5
2709A
  8
ビス
  6
CONTINUOUS
 62
     5
 10
220.4592091250517001
 20
147.9816633881760026
 30
0.0
 11
219.3863469798533004
 21
148.2863132484573896
 31
0.0
  0
LINE
  5
2709B
  8
ビス
  6
CONTINUOUS
 62
     5
 10
220.4476551599167067
 20
147.9079598852704009
 30
0.0
 11
219.3987191217524924
 21
148.2058156898592074
 31
0.0
  0
LINE
  5
2709C
  8
ビス
  6
CONTINUOUS
 62
     5
 10
217.7557681306483062
 20
148.6947996367231042
 30
0.0
 11
221.4499039499636126
 21
148.6947996367231042
 31
0.0
  0
LINE
  5
2709D
  8
ビス
  6
CONTINUOUS
 62
     5
 10
217.7557681306483062
 20
147.1948236367232141
 30
0.0
 11
221.4499039499636126
 21
147.1948236367232141
 31
0.0
  0
LINE
  5
2709E
  8
ビス
  6
CONTINUOUS
 62
     5
 10
222.0604749702442859
 20
148.0922186425343057
 30
0.0
 11
222.0604749702442859
 21
147.7974046309120126
 31
0.0
  0
LINE
  5
2709F
  8
ビス
  6
CONTINUOUS
 62
     5
 10
222.0604749702442859
 20
148.0922186425343057
 30
0.0
 11
221.4499039499636126
 21
148.6947996367231042
 31
0.0
  0
LINE
  5
270A0
  8
ビス
  6
CONTINUOUS
 62
     5
 10
222.0604749702442859
 20
147.9816633881760026
 30
0.0
 11
220.4592091250517001
 21
147.9816633881760026
 31
0.0
  0
LINE
  5
270A1
  8
ビス
  6
CONTINUOUS
 62
     5
 10
222.0604749702442859
 20
147.9079598852704009
 30
0.0
 11
220.4476551599167067
 21
147.9079598852704009
 31
0.0
  0
LINE
  5
270A2
  8
ビス
  6
CONTINUOUS
 62
     5
 10
222.0604749702442859
 20
147.7974046309120126
 30
0.0
 11
221.4499039499636126
 21
147.1948236367232141
 31
0.0
  0
LINE
  5
270A3
  8
ビス
  6
CONTINUOUS
 62
     5
 10
216.8878557902469026
 20
147.9185189921853976
 30
0.0
 11
215.7446687827666949
 21
147.9185189921853976
 31
0.0
  0
LINE
  5
270A4
  8
ビス
  6
CONTINUOUS
 62
     5
 10
216.9071746872257904
 20
147.8448154892799096
 30
0.0
 11
215.7446687827666949
 21
147.8448154892799096
 31
0.0
  0
LINE
  5
270A5
  8
ビス
  6
CONTINUOUS
 62
     5
 10
215.9389600221194883
 20
148.6947996367231042
 30
0.0
 11
213.761832852569114
 21
148.6947996367231042
 31
0.0
  0
LINE
  5
270A6
  8
ビス
  6
CONTINUOUS
 62
     5
 10
215.9389600221194883
 20
147.1948271367232053
 30
0.0
 11
213.761832852569114
 21
147.1948271367232053
 31
0.0
  0
LINE
  5
270A7
  8
ビス
  6
CONTINUOUS
 62
     5
 10
217.7557681306483062
 20
148.6947996367231042
 30
0.0
 11
215.9389600221194883
 21
149.3129405282799951
 31
0.0
  0
LINE
  5
270A8
  8
ビス
  6
CONTINUOUS
 62
     5
 10
217.8256902341082935
 20
148.5476553984238137
 30
0.0
 11
215.9389600221194883
 21
149.1895862054755071
 31
0.0
  0
LINE
  5
270A9
  8
ビス
  6
CONTINUOUS
 62
     5
 10
217.8256902341082935
 20
148.5476553984238137
 30
0.0
 11
215.9389600221194883
 21
148.5476553984235863
 31
0.0
  0
LINE
  5
270AA
  8
ビス
  6
CONTINUOUS
 62
     5
 10
215.9389600221194883
 20
149.3129405282799951
 30
0.0
 11
215.9389600221194883
 21
149.1895862054755071
 31
0.0
  0
LINE
  5
270AB
  8
ビス
  6
CONTINUOUS
 62
     5
 10
217.8256902341082935
 20
147.3419713750224957
 30
0.0
 11
215.9389600221194883
 21
147.3419713750226947
 31
0.0
  0
LINE
  5
270AC
  8
ビス
  6
CONTINUOUS
 62
     5
 10
217.8256902341082935
 20
147.3419713750224957
 30
0.0
 11
215.9389600221194883
 21
146.7000405679708024
 31
0.0
  0
LINE
  5
270AD
  8
ビス
  6
CONTINUOUS
 62
     5
 10
217.7557681306483062
 20
147.1948271367232053
 30
0.0
 11
215.9389600221194883
 21
146.576686245166286
 31
0.0
  0
LINE
  5
270AE
  8
ビス
  6
CONTINUOUS
 62
     5
 10
215.9389600221194883
 20
146.576686245166286
 30
0.0
 11
215.9389600221194883
 21
146.7000405679708024
 31
0.0
  0
LINE
  5
270AF
  8
ビス
  6
CONTINUOUS
 62
     5
 10
215.9389600221194883
 20
148.5476553984235863
 30
0.0
 11
215.9389600221194883
 21
148.6947996367231042
 31
0.0
  0
LINE
  5
270B0
  8
ビス
  6
CONTINUOUS
 62
     5
 10
215.9389600221194883
 20
147.3419713750226947
 30
0.0
 11
215.9389600221194883
 21
147.1948271367232053
 31
0.0
  0
LINE
  5
270B1
  8
ビス
  6
CONTINUOUS
 62
     5
 10
217.3543550789092933
 20
148.1695886338590071
 30
0.0
 11
216.8878557902469026
 21
147.9185189921853976
 31
0.0
  0
LINE
  5
270B2
  8
ビス
  6
CONTINUOUS
 62
     5
 10
217.3587080809718088
 20
148.0878304951471023
 30
0.0
 11
216.9071746872257904
 21
147.8448154892799096
 31
0.0
  0
LINE
  5
270B3
  8
ビス
  6
CONTINUOUS
 62
     5
 10
219.3863469798533004
 20
148.2863132484573896
 30
0.0
 11
218.4988101687447113
 21
147.7026911718891995
 31
0.0
  0
LINE
  5
270B4
  8
ビス
  6
CONTINUOUS
 62
     5
 10
219.3987191217524924
 20
148.2058156898592074
 30
0.0
 11
218.5069289670840931
 21
147.6193967206216087
 31
0.0
  0
LINE
  5
270B5
  8
ビス
  6
CONTINUOUS
 62
     5
 10
218.4988101687447113
 20
147.7026911718891995
 30
0.0
 11
217.3543550789092933
 21
148.1695886338590071
 31
0.0
  0
LINE
  5
270B6
  8
ビス
  6
CONTINUOUS
 62
     5
 10
218.4988101687447113
 20
147.7026911718891995
 30
0.0
 11
217.3543550789092933
 21
148.1695886338590071
 31
0.0
  0
LINE
  5
270B7
  8
ビス
  6
CONTINUOUS
 62
     5
 10
218.5069289670840931
 20
147.6193967206216087
 30
0.0
 11
217.3587080809718088
 21
148.0878304951471023
 31
0.0
  0
LINE
  5
270B8
  8
ビス
  6
CONTINUOUS
 62
     5
 10
215.3179822633250069
 20
147.1948271367232053
 30
0.0
 11
214.261832852569114
 21
146.9519334280653027
 31
0.0
  0
LINE
  5
270B9
  8
ビス
  6
CONTINUOUS
 62
     5
 10
215.3179822633250069
 20
148.6947996367231042
 30
0.0
 11
214.261832852569114
 21
148.9376933453810921
 31
0.0
  0
LINE
  5
270BA
  8
ビス
  6
CONTINUOUS
 62
     5
 10
215.7446687827666949
 20
147.9185189921853976
 30
0.0
 11
215.7446687827666949
 21
147.8448154892799096
 31
0.0
  0
LINE
  5
270BB
  8
ビス
 62
     5
 10
213.761832852569114
 20
147.1948271367232053
 30
0.0
 11
213.761832852569114
 21
148.6947996367231042
 31
0.0
  0
LINE
  5
270BC
  8
ビス
 62
     5
 10
213.761832852569114
 20
147.9448133867232116
 30
0.0
 11
214.4581212066551927
 21
147.9448133867232116
 31
0.0
  0
LINE
  5
270BD
  8
ビス
 10
213.761832852569114
 20
147.9448133867232116
 30
0.0
 11
215.7938301867089024
 21
147.9448133867232116
 31
0.0
  0
LINE
  5
270E2
  8
寸法
 10
211.7711330950237141
 20
149.2799459212239981
 30
0.0
 11
212.771130253073693
 21
149.2785693998492889
 31
0.0
  0
LINE
  5
270E3
  8
寸法
 10
211.7674623644032863
 20
146.6132817809829021
 30
0.0
 11
212.7674595224532936
 21
146.6119052596081929
 31
0.0
  0
LINE
  5
270E6
  8
ビス
 10
211.7711330950237141
 20
149.2799459212239981
 30
0.0
 11
211.7674623644032863
 21
146.6132817809829021
 31
0.0
  0
LINE
  5
270E7
  8
ビス
 10
211.7674623644032863
 20
146.6132817809829021
 30
0.0
 11
212.760749168052314
 21
147.2785817948542899
 31
0.0
  0
LINE
  5
270E8
  8
ビス
 10
211.7711330950237141
 20
149.2799459212239981
 30
0.0
 11
212.761832852569114
 21
148.6119148996824038
 31
0.0
  0
LINE
  5
270F5
  8
ビス
 10
45.7628183112247413
 20
169.5131355930317056
 30
0.0
 11
45.7628183112247413
 21
166.613140593031801
 31
0.0
  0
LINE
  5
270F6
  8
ビス
 62
     5
 10
45.7628183112247413
 20
168.7631355930317056
 30
0.0
 11
45.7628183112247413
 21
169.8075681241608095
 31
0.0
  0
LINE
  5
270F7
  8
ビス
  6
CONTINUOUS
 62
     5
 10
45.7075433090454268
 20
179.5592000017554994
 30
0.0
 11
45.2505685186231901
 21
177.9499067839579141
 31
0.0
  0
LINE
  5
270F8
  8
ビス
  6
CONTINUOUS
 62
     5
 10
45.8180985634037867
 20
179.5418690540531941
 30
0.0
 11
45.3713148565205415
 21
177.9684649968066879
 31
0.0
  0
LINE
  5
270F9
  8
ビス
  6
CONTINUOUS
 62
     5
 10
44.6378389362246821
 20
175.5040385101503944
 30
0.0
 11
44.6378389362246821
 21
181.0452422391234109
 31
0.0
  0
LINE
  5
270FA
  8
ビス
  6
CONTINUOUS
 62
     5
 10
46.8878029362245385
 20
175.5040385101503944
 30
0.0
 11
46.8878029362245385
 21
181.0452422391234109
 31
0.0
  0
LINE
  5
270FB
  8
ビス
  6
CONTINUOUS
 62
     5
 10
45.5417104275080078
 20
181.9610987695444919
 30
0.0
 11
45.9839314449414474
 21
181.9610987695444919
 31
0.0
  0
LINE
  5
270FC
  8
ビス
  6
CONTINUOUS
 62
     5
 10
45.5417104275080078
 20
181.9610987695444919
 30
0.0
 11
44.6378389362246821
 21
181.0452422391234109
 31
0.0
  0
LINE
  5
270FD
  8
ビス
  6
CONTINUOUS
 62
     5
 10
45.7075433090454268
 20
181.9610987695444919
 30
0.0
 11
45.7075433090454268
 21
179.5592000017554994
 31
0.0
  0
LINE
  5
270FE
  8
ビス
  6
CONTINUOUS
 62
     5
 10
45.8180985634037867
 20
181.9610987695444919
 30
0.0
 11
45.8180985634037867
 21
179.5418690540531941
 31
0.0
  0
LINE
  5
270FF
  8
ビス
  6
CONTINUOUS
 62
     5
 10
45.9839314449414474
 20
181.9610987695444919
 30
0.0
 11
46.8878029362245385
 21
181.0452422391234109
 31
0.0
  0
LINE
  5
27100
  8
ビス
  6
CONTINUOUS
 62
     5
 10
45.8022599030312634
 20
174.2021699995482038
 30
0.0
 11
45.8022599030312634
 21
172.4873894883282048
 31
0.0
  0
LINE
  5
27101
  8
ビス
  6
CONTINUOUS
 62
     5
 10
45.9128151573896233
 20
174.2311483450168055
 30
0.0
 11
45.9128151573896233
 21
172.4873894883282048
 31
0.0
  0
LINE
  5
27102
  8
ビス
  6
CONTINUOUS
 62
     5
 10
44.6378389362246821
 20
172.7788263473572101
 30
0.0
 11
44.6378389362246821
 21
169.5131355930317056
 31
0.0
  0
LINE
  5
27103
  8
ビス
  6
CONTINUOUS
 62
     5
 10
46.8877976862245873
 20
172.7788263473572101
 30
0.0
 11
46.8877976862245873
 21
169.5131355930317056
 31
0.0
  0
LINE
  5
27104
  8
ビス
  6
CONTINUOUS
 62
     5
 10
44.6378389362246821
 20
175.5040385101503944
 30
0.0
 11
43.7106275988892818
 21
172.7788263473572101
 31
0.0
  0
LINE
  5
27105
  8
ビス
  6
CONTINUOUS
 62
     5
 10
44.8585552936736391
 20
175.608921665340489
 30
0.0
 11
43.8956590830960565
 21
172.7788263473572101
 31
0.0
  0
LINE
  5
27106
  8
ビス
  6
CONTINUOUS
 62
     5
 10
44.8585552936736391
 20
175.608921665340489
 30
0.0
 11
44.8585552936738665
 21
172.7788263473572101
 31
0.0
  0
LINE
  5
27107
  8
ビス
  6
CONTINUOUS
 62
     5
 10
43.7106275988892818
 20
172.7788263473572101
 30
0.0
 11
43.8956590830960565
 21
172.7788263473572101
 31
0.0
  0
LINE
  5
27108
  8
ビス
  6
CONTINUOUS
 62
     5
 10
46.6670813287756232
 20
175.608921665340489
 30
0.0
 11
46.6670813287753887
 21
172.7788263473572101
 31
0.0
  0
LINE
  5
27109
  8
ビス
  6
CONTINUOUS
 62
     5
 10
46.6670813287756232
 20
175.608921665340489
 30
0.0
 11
47.6299775393531988
 21
172.7788263473572101
 31
0.0
  0
LINE
  5
2710A
  8
ビス
  6
CONTINUOUS
 62
     5
 10
46.8877976862245873
 20
175.5040385101503944
 30
0.0
 11
47.8150090235599805
 21
172.7788263473572101
 31
0.0
  0
LINE
  5
2710B
  8
ビス
  6
CONTINUOUS
 62
     5
 10
47.8150090235599805
 20
172.7788263473572101
 30
0.0
 11
47.6299775393531988
 21
172.7788263473572101
 31
0.0
  0
LINE
  5
2710C
  8
ビス
  6
CONTINUOUS
 62
     5
 10
44.8585552936738665
 20
172.7788263473572101
 30
0.0
 11
44.6378389362246821
 21
172.7788263473572101
 31
0.0
  0
LINE
  5
2710D
  8
ビス
  6
CONTINUOUS
 62
     5
 10
46.6670813287753887
 20
172.7788263473572101
 30
0.0
 11
46.8877976862245873
 21
172.7788263473572101
 31
0.0
  0
LINE
  5
2710E
  8
ビス
  6
CONTINUOUS
 62
     5
 10
45.4256554405208703
 20
174.9019189325420029
 30
0.0
 11
45.8022599030312634
 21
174.2021699995482038
 31
0.0
  0
LINE
  5
2710F
  8
ビス
  6
CONTINUOUS
 62
     5
 10
45.5482926485886424
 20
174.9084484356355915
 30
0.0
 11
45.9128151573896233
 21
174.2311483450168055
 31
0.0
  0
LINE
  5
27110
  8
ビス
  6
CONTINUOUS
 62
     5
 10
45.2505685186231901
 20
177.9499067839579141
 30
0.0
 11
46.1260016334754823
 21
176.618601567295002
 31
0.0
  0
LINE
  5
27111
  8
ビス
  6
CONTINUOUS
 62
     5
 10
45.3713148565205415
 20
177.9684649968066879
 30
0.0
 11
46.2509433103769467
 21
176.6307797648042026
 31
0.0
  0
LINE
  5
27112
  8
ビス
  6
CONTINUOUS
 62
     5
 10
46.1260016334754823
 20
176.618601567295002
 30
0.0
 11
45.4256554405208703
 21
174.9019189325420029
 31
0.0
  0
LINE
  5
27113
  8
ビス
  6
CONTINUOUS
 62
     5
 10
46.1260016334754823
 20
176.618601567295002
 30
0.0
 11
45.4256554405208703
 21
174.9019189325420029
 31
0.0
  0
LINE
  5
27114
  8
ビス
  6
CONTINUOUS
 62
     5
 10
46.2509433103769467
 20
176.6307797648042026
 30
0.0
 11
45.5482926485886424
 21
174.9084484356355915
 31
0.0
  0
LINE
  5
27115
  8
ビス
  6
CONTINUOUS
 62
     5
 10
46.8877976862245873
 20
171.8473597091654881
 30
0.0
 11
47.252138249211427
 21
170.2631355930317056
 31
0.0
  0
LINE
  5
27116
  8
ビス
  6
CONTINUOUS
 62
     5
 10
44.6378389362246821
 20
171.8473597091654881
 30
0.0
 11
44.2734983732378282
 21
170.2631355930317056
 31
0.0
  0
LINE
  5
27117
  8
ビス
  6
CONTINUOUS
 62
     5
 10
45.8022599030312634
 20
172.4873894883282048
 30
0.0
 11
45.9128151573896233
 21
172.4873894883282048
 31
0.0
  0
LINE
  5
27118
  8
ビス
 62
     5
 10
46.8877976862245873
 20
169.5131355930317056
 30
0.0
 11
44.6378389362247887
 21
169.5131355930317056
 31
0.0
  0
LINE
  5
27119
  8
ビス
 62
     5
 10
45.7628183112247413
 20
169.5131355930317056
 30
0.0
 11
45.7628183112247413
 21
170.5575681241608095
 31
0.0
  0
LINE
  5
2711A
  8
ビス
 62
     5
 10
96.6771593508943852
 20
168.7631355930317056
 30
0.0
 11
96.6771593508943852
 21
169.8075681241608095
 31
0.0
  0
LINE
  5
2711B
  8
ビス
  6
CONTINUOUS
 62
     5
 10
96.6218843487150849
 20
179.5592000017554994
 30
0.0
 11
96.1649095582928339
 21
177.9499067839579141
 31
0.0
  0
LINE
  5
2711C
  8
ビス
  6
CONTINUOUS
 62
     5
 10
96.7324396030734448
 20
179.5418690540531941
 30
0.0
 11
96.2856558961901783
 21
177.9684649968066879
 31
0.0
  0
LINE
  5
2711D
  8
ビス
  6
CONTINUOUS
 62
     5
 10
95.5521799758943189
 20
175.5040385101503944
 30
0.0
 11
95.5521799758943189
 21
181.0452422391234109
 31
0.0
  0
LINE
  5
2711E
  8
ビス
  6
CONTINUOUS
 62
     5
 10
97.8021439758941824
 20
175.5040385101503944
 30
0.0
 11
97.8021439758941824
 21
181.0452422391234109
 31
0.0
  0
LINE
  5
2711F
  8
ビス
  6
CONTINUOUS
 62
     5
 10
96.4560514671776446
 20
181.9610987695444919
 30
0.0
 11
96.8982724846110841
 21
181.9610987695444919
 31
0.0
  0
LINE
  5
27120
  8
ビス
  6
CONTINUOUS
 62
     5
 10
96.4560514671776446
 20
181.9610987695444919
 30
0.0
 11
95.5521799758943189
 21
181.0452422391234109
 31
0.0
  0
LINE
  5
27121
  8
ビス
  6
CONTINUOUS
 62
     5
 10
96.6218843487150849
 20
181.9610987695444919
 30
0.0
 11
96.6218843487150849
 21
179.5592000017554994
 31
0.0
  0
LINE
  5
27122
  8
ビス
  6
CONTINUOUS
 62
     5
 10
96.7324396030734448
 20
181.9610987695444919
 30
0.0
 11
96.7324396030734448
 21
179.5418690540531941
 31
0.0
  0
LINE
  5
27123
  8
ビス
  6
CONTINUOUS
 62
     5
 10
96.8982724846110841
 20
181.9610987695444919
 30
0.0
 11
97.8021439758941824
 21
181.0452422391234109
 31
0.0
  0
LINE
  5
27124
  8
ビス
  6
CONTINUOUS
 62
     5
 10
96.716600942700893
 20
174.2021699995482038
 30
0.0
 11
96.716600942700893
 21
172.4873894883282048
 31
0.0
  0
LINE
  5
27125
  8
ビス
  6
CONTINUOUS
 62
     5
 10
96.8271561970592529
 20
174.2311483450168055
 30
0.0
 11
96.8271561970592529
 21
172.4873894883282048
 31
0.0
  0
LINE
  5
27126
  8
ビス
  6
CONTINUOUS
 62
     5
 10
95.5521799758943189
 20
172.7788263473572101
 30
0.0
 11
95.5521799758943189
 21
169.5131355930317056
 31
0.0
  0
LINE
  5
27127
  8
ビス
  6
CONTINUOUS
 62
     5
 10
97.8021387258942241
 20
172.7788263473572101
 30
0.0
 11
97.8021387258942241
 21
169.5131355930317056
 31
0.0
  0
LINE
  5
27128
  8
ビス
  6
CONTINUOUS
 62
     5
 10
95.5521799758943189
 20
175.5040385101503944
 30
0.0
 11
94.6249686385589257
 21
172.7788263473572101
 31
0.0
  0
LINE
  5
27129
  8
ビス
  6
CONTINUOUS
 62
     5
 10
95.772896333343283
 20
175.608921665340489
 30
0.0
 11
94.8100001227657003
 21
172.7788263473572101
 31
0.0
  0
LINE
  5
2712A
  8
ビス
  6
CONTINUOUS
 62
     5
 10
95.772896333343283
 20
175.608921665340489
 30
0.0
 11
95.7728963333434962
 21
172.7788263473572101
 31
0.0
  0
LINE
  5
2712B
  8
ビス
  6
CONTINUOUS
 62
     5
 10
94.6249686385589257
 20
172.7788263473572101
 30
0.0
 11
94.8100001227657003
 21
172.7788263473572101
 31
0.0
  0
LINE
  5
2712C
  8
ビス
  6
CONTINUOUS
 62
     5
 10
97.5814223684452742
 20
175.608921665340489
 30
0.0
 11
97.5814223684450468
 21
172.7788263473572101
 31
0.0
  0
LINE
  5
2712D
  8
ビス
  6
CONTINUOUS
 62
     5
 10
97.5814223684452742
 20
175.608921665340489
 30
0.0
 11
98.5443185790228426
 21
172.7788263473572101
 31
0.0
  0
LINE
  5
2712E
  8
ビス
  6
CONTINUOUS
 62
     5
 10
97.8021387258942241
 20
175.5040385101503944
 30
0.0
 11
98.7293500632296031
 21
172.7788263473572101
 31
0.0
  0
LINE
  5
2712F
  8
ビス
  6
CONTINUOUS
 62
     5
 10
98.7293500632296031
 20
172.7788263473572101
 30
0.0
 11
98.5443185790228426
 21
172.7788263473572101
 31
0.0
  0
LINE
  5
27130
  8
ビス
  6
CONTINUOUS
 62
     5
 10
95.7728963333434962
 20
172.7788263473572101
 30
0.0
 11
95.5521799758943189
 21
172.7788263473572101
 31
0.0
  0
LINE
  5
27131
  8
ビス
  6
CONTINUOUS
 62
     5
 10
97.5814223684450468
 20
172.7788263473572101
 30
0.0
 11
97.8021387258942241
 21
172.7788263473572101
 31
0.0
  0
LINE
  5
27132
  8
ビス
  6
CONTINUOUS
 62
     5
 10
96.3399964801905071
 20
174.9019189325420029
 30
0.0
 11
96.716600942700893
 21
174.2021699995482038
 31
0.0
  0
LINE
  5
27133
  8
ビス
  6
CONTINUOUS
 62
     5
 10
96.4626336882582649
 20
174.9084484356355915
 30
0.0
 11
96.8271561970592529
 21
174.2311483450168055
 31
0.0
  0
LINE
  5
27134
  8
ビス
  6
CONTINUOUS
 62
     5
 10
96.1649095582928339
 20
177.9499067839579141
 30
0.0
 11
97.0403426731451049
 21
176.618601567295002
 31
0.0
  0
LINE
  5
27135
  8
ビス
  6
CONTINUOUS
 62
     5
 10
96.2856558961901783
 20
177.9684649968066879
 30
0.0
 11
97.1652843500466048
 21
176.6307797648042026
 31
0.0
  0
LINE
  5
27136
  8
ビス
  6
CONTINUOUS
 62
     5
 10
97.0403426731451049
 20
176.618601567295002
 30
0.0
 11
96.3399964801905071
 21
174.9019189325420029
 31
0.0
  0
LINE
  5
27137
  8
ビス
  6
CONTINUOUS
 62
     5
 10
97.0403426731451049
 20
176.618601567295002
 30
0.0
 11
96.3399964801905071
 21
174.9019189325420029
 31
0.0
  0
LINE
  5
27138
  8
ビス
  6
CONTINUOUS
 62
     5
 10
97.1652843500466048
 20
176.6307797648042026
 30
0.0
 11
96.4626336882582649
 21
174.9084484356355915
 31
0.0
  0
LINE
  5
27139
  8
ビス
  6
CONTINUOUS
 62
     5
 10
97.8021387258942241
 20
171.8473597091654881
 30
0.0
 11
98.1664792888810922
 21
170.2631355930317056
 31
0.0
  0
LINE
  5
2713A
  8
ビス
  6
CONTINUOUS
 62
     5
 10
95.5521799758943189
 20
171.8473597091654881
 30
0.0
 11
95.187839412907465
 21
170.2631355930317056
 31
0.0
  0
LINE
  5
2713B
  8
ビス
  6
CONTINUOUS
 62
     5
 10
96.716600942700893
 20
172.4873894883282048
 30
0.0
 11
96.8271561970592529
 21
172.4873894883282048
 31
0.0
  0
LINE
  5
2713C
  8
ビス
 62
     5
 10
97.8021387258942241
 20
169.5131355930317056
 30
0.0
 11
95.5521799758944184
 21
169.5131355930317056
 31
0.0
  0
LINE
  5
2713D
  8
ビス
 62
     5
 10
96.6771593508943852
 20
169.5131355930317056
 30
0.0
 11
96.6771593508943852
 21
170.5575681241608095
 31
0.0
  0
LINE
  5
27143
  8
寸法
 10
45.7628183112247413
 20
168.0631380930317107
 30
0.0
 11
45.7634542257330779
 21
169.5519450402402128
 31
0.0
  0
LINE
  5
27144
  8
ビス
 10
43.7607554239818271
 20
166.5658954039220987
 30
0.0
 11
47.7607516343434781
 21
166.5603893079916134
 31
0.0
  0
LINE
  5
27145
  8
ビス
 10
47.7607516343434781
 20
166.5603893079916134
 30
0.0
 11
46.7628016135363325
 21
168.0503195134650127
 31
0.0
  0
LINE
  5
27146
  8
ビス
 10
43.7607554239818271
 20
166.5658954039220987
 30
0.0
 11
44.7628019562940835
 21
168.0519450402402128
 31
0.0
  0
LINE
  5
27873
  8
本体2
 62
     7
 10
210.2297584588021948
 20
127.6118390235290008
 30
0.0
 11
211.2297584588021948
 21
127.6118390235290008
 31
0.0
  0
LINE
  5
27874
  8
本体2
 62
     7
 10
211.2297584588021948
 20
127.6118390235290008
 30
0.0
 11
211.2297584588021948
 21
127.7601785170140971
 31
0.0
  0
LINE
  5
2787B
  8
本体2
  6
CONTINUOUS
 10
209.639948092055306
 20
126.7590000984395999
 30
0.0
 11
209.623141718978502
 21
119.2552180187443014
 31
0.0
  0
ARC
  5
2787C
  8
本体2
  6
CONTINUOUS
 10
211.0535666376227084
 20
119.1853474331333018
 30
0.0
 40
0.0666666666666667
 50
359.8716736938957865
 51
89.8716736939023804
  0
ARC
  5
2787D
  8
本体2
  6
CONTINUOUS
 10
211.052969380373014
 20
118.9186814353105035
 30
0.0
 40
0.0666666666666667
 50
269.8716736939023235
 51
359.8716736938957865
  0
LINE
  5
2787E
  8
本体2
  6
CONTINUOUS
 10
211.1202331370785998
 20
119.1851981188209066
 30
0.0
 11
211.1196358798289907
 21
118.9185321209979946
 31
0.0
  0
ARC
  5
2787F
  8
本体2
  6
CONTINUOUS
 10
209.3461178750295062
 20
118.9144287561258011
 30
0.0
 40
0.0586865436604158
 50
229.9431644799157937
 51
273.1391678669530734
  0
LINE
  5
27880
  8
本体2
  6
CONTINUOUS
 10
209.623141718978502
 20
119.2552180187443014
 30
0.0
 11
211.0537159519350041
 21
119.2520139325890938
 31
0.0
  0
LINE
  5
27881
  8
本体2
  6
CONTINUOUS
 10
209.3493316328018921
 20
118.8558302734852958
 30
0.0
 11
211.0528200660606899
 21
118.8520149358545979
 31
0.0
  0
LINE
  5
27882
  8
本体2
  6
CONTINUOUS
 10
210.8081557738800882
 20
127.4457327035611058
 30
0.0
 11
210.8083797453487023
 21
127.5457324527448009
 31
0.0
  0
LINE
  5
27883
  8
本体2
  6
CONTINUOUS
 10
211.3071786166248103
 20
127.0088873801012994
 30
0.0
 11
211.308378491266609
 21
127.544612595401901
 31
0.0
  0
ARC
  5
27884
  8
本体2
  6
CONTINUOUS
 10
211.2417119918104049
 20
127.5447619097141967
 30
0.0
 40
0.0666666666666667
 50
359.8716736938957865
 51
89.8716736939023804
  0
LINE
  5
27885
  8
本体2
  6
CONTINUOUS
 10
210.8751955591162073
 20
127.6122496378880982
 30
0.0
 11
211.2418613061227859
 21
127.6114284091699034
 31
0.0
  0
ARC
  5
27886
  8
本体2
  6
CONTINUOUS
 10
210.8750462448037979
 20
127.5455831384324057
 30
0.0
 40
0.0666666666666667
 50
89.8716736939023804
 51
179.8716736938991119
  0
LINE
  5
27887
  8
本体2
  6
CONTINUOUS
 10
210.4748232766008869
 20
127.4464792751230959
 30
0.0
 11
210.4750472480695009
 21
127.5464790243068052
 31
0.0
  0
ARC
  5
27888
  8
本体2
  6
CONTINUOUS
 10
210.4083807486138085
 20
127.5466283386191009
 30
0.0
 40
0.0666666666666667
 50
359.8716736938957865
 51
89.8716736939023804
  0
LINE
  5
27889
  8
本体2
  6
CONTINUOUS
 10
210.4748232766008869
 20
127.4464792751230959
 30
0.0
 11
210.8081557738800882
 21
127.4457327035611058
 31
0.0
  0
LINE
  5
2788A
  8
本体2
  6
CONTINUOUS
 10
209.6417160048727908
 20
127.5483454532116951
 30
0.0
 11
209.6414920334042051
 21
127.4483457040280001
 31
0.0
  0
LINE
  5
2788B
  8
本体2
  6
CONTINUOUS
 10
209.9748245306828949
 20
127.4475991324659958
 30
0.0
 11
209.975048502151509
 21
127.547598881649705
 31
0.0
  0
LINE
  5
2788C
  8
本体2
  6
CONTINUOUS
 10
209.6414920334042051
 20
127.4483457040280001
 30
0.0
 11
209.9748245306828949
 21
127.4475991324659958
 31
0.0
  0
LINE
  5
2788D
  8
本体2
  6
CONTINUOUS
 10
209.3075622788765884
 20
127.1824262777669929
 30
0.0
 11
209.3075622788765884
 21
127.1824262777669929
 31
0.0
  0
ARC
  5
2788E
  8
本体2
  6
CONTINUOUS
 10
209.0410455953654889
 20
127.249690034472394
 30
0.0
 40
0.0666666666666667
 50
179.8716736938991119
 51
269.8716736939023235
  0
LINE
  5
2788F
  8
本体2
  6
CONTINUOUS
 10
208.9743790959097112
 20
127.2498393487848034
 30
0.0
 11
208.9744537530660011
 21
127.2831725985127065
 31
0.0
  0
LINE
  5
27890
  8
本体2
  6
CONTINUOUS
 10
209.0408962810529943
 20
127.1830235350165026
 30
0.0
 11
209.3075622788765884
 21
127.1824262777669929
 31
0.0
  0
ARC
  5
27891
  8
本体2
  6
CONTINUOUS
 10
209.575049505417212
 20
127.5484947675240051
 30
0.0
 40
0.0666666666666667
 50
359.8716736938957865
 51
89.8716736939023804
  0
LINE
  5
27892
  8
本体2
  6
CONTINUOUS
 10
209.3085328219071926
 20
127.6157585242293067
 30
0.0
 11
209.5751988197295077
 21
127.6151612669796975
 31
0.0
  0
ARC
  5
27893
  8
本体2
  6
CONTINUOUS
 10
210.0417150016070877
 20
127.5474495673372957
 30
0.0
 40
0.0666666666666667
 50
89.8716736939023804
 51
179.8716736938991119
  0
ARC
  5
27894
  8
本体2
  6
CONTINUOUS
 10
209.3077862503452025
 20
127.2824260269507022
 30
0.0
 40
0.3333333333333333
 50
89.8716736939023804
 51
179.8716736938991119
  0
LINE
  5
27895
  8
本体2
  6
CONTINUOUS
 10
210.0418643159194971
 20
127.6141160667930023
 30
0.0
 11
210.4085300629261042
 21
127.6132948380747933
 31
0.0
  0
ARC
  5
27896
  8
本体2
  6
CONTINUOUS
 10
211.2405121171686062
 20
127.0090366944136946
 30
0.0
 40
0.0666666666666667
 50
299.8716736938931149
 51
359.8716736938957865
  0
LINE
  5
27897
  8
本体2
  6
CONTINUOUS
 10
211.0229540150527043
 20
126.8071975048056004
 30
0.0
 11
211.2737160569085972
 21
126.9512271551477056
 31
0.0
  0
ARC
  5
27898
  8
本体2
  6
CONTINUOUS
 10
210.989750075312287
 20
126.8650070440722999
 30
0.0
 40
0.0666666666666667
 50
220.4435201717504924
 51
299.8716736938931149
  0
ARC
  5
27899
  8
本体2
  6
CONTINUOUS
 10
209.7066145915109985
 20
126.7588507841272047
 30
0.0
 40
0.0666666666666667
 50
141.463136975071393
 51
179.8716736938991119
  0
ARC
  5
2789B
  8
本体2
  6
CONTINUOUS
 10
210.3055476549814955
 20
126.2818084361919944
 30
0.0
 40
0.8323625699103494
 50
40.4435201717505279
 51
141.463136975071393
  0
LINE
  5
2789C
  8
本体2
 10
209.3075622788765884
 20
127.1824262777669929
 30
0.0
 11
209.3083503151131026
 21
118.8695096975340988
 31
0.0
  0
LINE
  5
2789D
  8
PL1
 10
209.3075622788765884
 20
127.1824262777669929
 30
0.0
 11
208.9742289455431887
 21
127.1824262777669929
 31
0.0
  0
LINE
  5
2789E
  8
PL1
 10
208.9742289455431887
 20
127.1824262777669929
 30
0.0
 11
208.9648146143057943
 21
107.6145321148404008
 31
0.0
  0
LINE
  5
2789F
  8
PL1
 10
209.3075622788765884
 20
127.1824262777669929
 30
0.0
 11
209.3075622788765884
 21
110.2785056901957006
 31
0.0
  0
LINE
  5
278A0
  8
PL2
 10
211.7416084881074028
 20
126.7674409551204064
 30
0.0
 11
211.7416084881074028
 21
107.6145321148404008
 31
0.0
  0
LINE
  5
278A1
  8
PL2
 10
212.7416084881074028
 20
127.6118390235290008
 30
0.0
 11
212.7416084881074028
 21
107.6145321148404008
 31
0.0
  0
LINE
  5
278A3
  8
本体2
  6
CONTINUOUS
 10
209.639948092055306
 20
51.0406761259224524
 30
0.0
 11
209.623141718978502
 21
58.5444582056177794
 31
0.0
  0
ARC
  5
278A4
  8
本体2
  6
CONTINUOUS
 10
211.0535666376227084
 20
58.6143287912287931
 30
0.0
 40
0.0666666666666667
 50
270.1283263060976196
 51
0.1283263061008806
  0
ARC
  5
278A5
  8
本体2
  6
CONTINUOUS
 10
211.052969380373014
 20
58.8809947890516128
 30
0.0
 40
0.0666666666666667
 50
0.1283263061008806
 51
90.1283263060976338
  0
LINE
  5
278A6
  8
本体2
  6
CONTINUOUS
 10
211.1202331370785998
 20
58.6144781055411883
 30
0.0
 11
211.1196358798289907
 21
58.8811441033640222
 31
0.0
  0
ARC
  5
278A7
  8
本体2
  6
CONTINUOUS
 10
209.3461178750295062
 20
58.8852474682362867
 30
0.0
 40
0.0586865436604158
 50
86.8608321330467987
 51
130.0568355200842063
  0
LINE
  5
278A8
  8
本体2
  6
CONTINUOUS
 10
209.623141718978502
 20
58.5444582056177794
 30
0.0
 11
211.0537159519350041
 21
58.5476622917730012
 31
0.0
  0
LINE
  5
278A9
  8
本体2
  6
CONTINUOUS
 10
209.3493316328018921
 20
58.943845950876721
 30
0.0
 11
211.0528200660606899
 21
58.9476612885074402
 31
0.0
  0
LINE
  5
278AA
  8
本体2
  6
CONTINUOUS
 10
210.8081557738800882
 20
50.3539435208008896
 30
0.0
 11
210.8083797453487023
 21
50.2539437716172799
 31
0.0
  0
LINE
  5
278AB
  8
本体2
  6
CONTINUOUS
 10
211.3071786166248103
 20
50.79078884426076
 30
0.0
 11
211.308378491266609
 21
50.2550636289602082
 31
0.0
  0
ARC
  5
278AC
  8
本体2
  6
CONTINUOUS
 10
211.2417119918104049
 20
50.2549143146477988
 30
0.0
 40
0.0666666666666667
 50
270.1283263060976196
 51
0.1283263061008806
  0
LINE
  5
278AD
  8
本体2
  6
CONTINUOUS
 10
210.8751955591162073
 20
50.1874265864739684
 30
0.0
 11
211.2418613061227859
 21
50.1882478151921418
 31
0.0
  0
ARC
  5
278AE
  8
本体2
  6
CONTINUOUS
 10
210.8750462448037979
 20
50.2540930859296395
 30
0.0
 40
0.0666666666666667
 50
180.1283263061008029
 51
270.1283263060976196
  0
LINE
  5
278AF
  8
本体2
  6
CONTINUOUS
 10
210.4748232766008869
 20
50.3531969492389635
 30
0.0
 11
210.4750472480695009
 21
50.2531972000552969
 31
0.0
  0
ARC
  5
278B0
  8
本体2
  6
CONTINUOUS
 10
210.4083807486138085
 20
50.2530478857428804
 30
0.0
 40
0.0666666666666667
 50
270.1283263060976196
 51
0.1283263061008806
  0
LINE
  5
278B1
  8
本体2
  6
CONTINUOUS
 10
210.4748232766008869
 20
50.3531969492389635
 30
0.0
 11
210.8081557738800882
 21
50.3539435208008896
 31
0.0
  0
LINE
  5
278B2
  8
本体2
  6
CONTINUOUS
 10
209.6417160048727908
 20
50.2513307711503785
 30
0.0
 11
209.6414920334042051
 21
50.3513305203340522
 31
0.0
  0
LINE
  5
278B3
  8
本体2
  6
CONTINUOUS
 10
209.9748245306828949
 20
50.3520770918960281
 30
0.0
 11
209.975048502151509
 21
50.2520773427123686
 31
0.0
  0
LINE
  5
278B4
  8
本体2
  6
CONTINUOUS
 10
209.6414920334042051
 20
50.3513305203340522
 30
0.0
 11
209.9748245306828949
 21
50.3520770918960281
 31
0.0
  0
LINE
  5
278B5
  8
本体2
  6
CONTINUOUS
 10
209.3075622788765884
 20
50.6172499465950523
 30
0.0
 11
209.3075622788765884
 21
50.6172499465950523
 31
0.0
  0
ARC
  5
278B6
  8
本体2
  6
CONTINUOUS
 10
209.0410455953654889
 20
50.5499861898896867
 30
0.0
 40
0.0666666666666667
 50
90.1283263060976338
 51
180.1283263061008029
  0
LINE
  5
278B7
  8
本体2
  6
CONTINUOUS
 10
208.9743790959097112
 20
50.5498368755772773
 30
0.0
 11
208.9744537530660011
 21
50.5165036258494524
 31
0.0
  0
LINE
  5
278B8
  8
本体2
  6
CONTINUOUS
 10
209.0408962810529943
 20
50.6166526893454716
 30
0.0
 11
209.3075622788765884
 21
50.6172499465950523
 31
0.0
  0
ARC
  5
278B9
  8
本体2
  6
CONTINUOUS
 10
209.575049505417212
 20
50.2511814568380188
 30
0.0
 40
0.0666666666666667
 50
270.1283263060976196
 51
0.1283263061008806
  0
LINE
  5
278BA
  8
本体2
  6
CONTINUOUS
 10
209.3085328219071926
 20
50.1839177001327812
 30
0.0
 11
209.5751988197295077
 21
50.1845149573823619
 31
0.0
  0
ARC
  5
278BB
  8
本体2
  6
CONTINUOUS
 10
210.0417150016070877
 20
50.252226657024778
 30
0.0
 40
0.0666666666666667
 50
180.1283263061008029
 51
270.1283263060976196
  0
ARC
  5
278BC
  8
本体2
  6
CONTINUOUS
 10
209.3077862503452025
 20
50.5172501974113786
 30
0.0
 40
0.3333333333333333
 50
180.1283263061008029
 51
270.1283263060976196
  0
LINE
  5
278BD
  8
本体2
  6
CONTINUOUS
 10
210.0418643159194971
 20
50.1855601575691068
 30
0.0
 11
210.4085300629261042
 21
50.1863813862872234
 31
0.0
  0
ARC
  5
278BE
  8
本体2
  6
CONTINUOUS
 10
211.2405121171686062
 20
50.7906395299483506
 30
0.0
 40
0.0666666666666667
 50
0.1283263061008806
 51
60.1283263061068709
  0
LINE
  5
278BF
  8
本体2
  6
CONTINUOUS
 10
211.0229540150527043
 20
50.9924787195565088
 30
0.0
 11
211.2737160569085972
 21
50.8484490692142685
 31
0.0
  0
ARC
  5
278C0
  8
本体2
  6
CONTINUOUS
 10
210.989750075312287
 20
50.934669180289859
 30
0.0
 40
0.0666666666666667
 50
60.1283263061068709
 51
139.5564798282495076
  0
ARC
  5
278C1
  8
本体2
  6
CONTINUOUS
 10
209.7066145915109985
 20
51.040825440234812
 30
0.0
 40
0.0666666666666667
 50
180.1283263061008029
 51
218.536863024928607
  0
ARC
  5
278C3
  8
本体2
  6
CONTINUOUS
 10
210.3055476549814955
 20
51.5178677881700082
 30
0.0
 40
0.8323625699103494
 50
218.536863024928607
 51
319.5564798282495076
  0
LINE
  5
278C4
  8
本体2
 10
209.3075622788765884
 20
50.6172499465950523
 30
0.0
 11
209.3083503151131026
 21
58.9301665268279677
 31
0.0
  0
LINE
  5
278C5
  8
PL1
 10
209.3075622788765884
 20
50.6172499465950523
 30
0.0
 11
208.9742289455431887
 21
50.6172499465950523
 31
0.0
  0
LINE
  5
278C6
  8
PL1
 10
208.9742289455431887
 20
50.6172499465950523
 30
0.0
 11
208.9661301883350006
 21
99.6496387764012752
 31
0.0
  0
LINE
  5
278C7
  8
PL1
 10
208.9659925453503888
 20
100.4829721097346038
 30
0.0
 11
208.9648146143057943
 21
107.6145321148404008
 31
0.0
  0
LINE
  5
278C8
  8
PL2
 10
211.7416084881074028
 20
51.0322352692417667
 30
0.0
 11
211.7416084881074028
 21
99.1327327302565209
 31
0.0
  0
LINE
  5
278C9
  8
PL2
 10
211.7416084881074028
 20
100.3112440322343986
 30
0.0
 11
211.7416084881074028
 21
107.6145321148404008
 31
0.0
  0
LINE
  5
278CA
  8
PL2
 10
211.7416084881074028
 20
51.0322352692417667
 30
0.0
 11
212.7416084881074028
 21
51.0322352692417667
 31
0.0
  0
LINE
  5
278CB
  8
PL2
 10
212.7416084881074028
 20
51.0322352692417667
 30
0.0
 11
212.741608488107488
 21
99.6496387764012752
 31
0.0
  0
LINE
  5
278CC
  8
PL2
 10
212.741608488107488
 20
100.4829721097346038
 30
0.0
 11
212.7416084881074028
 21
107.6145321148404008
 31
0.0
  0
LINE
  5
278CD
  8
壁
 10
213.7416084881074028
 20
44.2717135041719416
 30
0.0
 11
213.7416084881074028
 21
99.6496387764012326
 31
0.0
  0
LINE
  5
278CE
  8
壁
 10
213.7416084881074028
 20
100.4829721097346038
 30
0.0
 11
213.7416084881074028
 21
107.6145321148404008
 31
0.0
  0
LINE
  5
278CF
  8
PL2
 10
208.9663594377173013
 20
110.2785056901957006
 30
0.0
 11
208.9663594377173013
 21
100.4829721097346038
 31
0.0
  0
LINE
  5
278D0
  8
PL2
 10
208.9663594377173013
 20
99.6496387764012752
 30
0.0
 11
208.9663594377173013
 21
90.2785056901956864
 31
0.0
  0
LINE
  5
278D1
  8
PL2
 10
208.9663594377173013
 20
90.2785056901956864
 30
0.0
 11
209.6330261043839869
 21
90.2785056901956864
 31
0.0
  0
LINE
  5
278D2
  8
PL2
 10
209.6330261043839869
 20
90.2785056901956864
 30
0.0
 11
209.6330261043839869
 21
99.6496387764012752
 31
0.0
  0
LINE
  5
278D3
  8
PL2
 10
209.6330261043841006
 20
100.4829721097346038
 30
0.0
 11
209.6330261043839869
 21
110.2785056901957006
 31
0.0
  0
LINE
  5
278D4
  8
PL2
 10
209.6330261043839869
 20
110.2785056901957006
 30
0.0
 11
208.9663594377173013
 21
110.2785056901957006
 31
0.0
  0
LINE
  5
278D5
  8
PL2
 10
210.2996927710507009
 20
95.2785056901956864
 30
0.0
 11
210.2996927710507009
 21
99.6496387764012752
 31
0.0
  0
LINE
  5
278D6
  8
PL2
 10
210.2996927710505872
 20
100.5123057112223961
 30
0.0
 11
210.2996927710507009
 21
105.2785056901957006
 31
0.0
  0
LINE
  5
278D7
  8
PL2
 10
210.2996927710507009
 20
105.2785056901957006
 30
0.0
 11
209.6330261043839869
 21
105.2785056901957006
 31
0.0
  0
LINE
  5
278D8
  8
PL2
 10
209.6330261043839869
 20
95.2785056901956864
 30
0.0
 11
210.2996927710507009
 21
95.2785056901956864
 31
0.0
  0
LINE
  5
278D9
  8
PL2
 10
210.2996927710507009
 20
95.2785056901956864
 30
0.0
 11
210.2996927710507009
 21
95.2785056901956864
 31
0.0
  0
LINE
  5
278DA
  8
PL2
 10
208.973047579746293
 20
82.9505476721085557
 30
0.0
 11
208.973047579746293
 21
62.8526374385948472
 31
0.0
  0
LINE
  5
278DB
  8
PL2
 10
208.973047579746293
 20
62.8526374385948472
 30
0.0
 11
209.639714246413007
 21
62.8526374385948472
 31
0.0
  0
LINE
  5
278DC
  8
PL2
 10
209.639714246413007
 20
62.8526374385948472
 30
0.0
 11
209.639714246413007
 21
82.9505476721085557
 31
0.0
  0
LINE
  5
278DD
  8
PL2
 10
209.639714246413007
 20
82.9505476721085557
 30
0.0
 11
208.973047579746293
 21
82.9505476721085557
 31
0.0
  0
LINE
  5
278DE
  8
壁
 10
213.7416084881074028
 20
167.471917111202913
 30
0.0
 11
221.0099290338523019
 21
174.7547118262860124
 31
0.0
  0
LINE
  5
278DF
  8
壁
 10
213.7416084881074028
 20
172.646431921847892
 30
0.0
 11
221.0099290338523019
 21
179.9292266369320998
 31
0.0
  0
LINE
  5
278E0
  8
壁
 10
213.7416084881074028
 20
169.9913031032677111
 30
0.0
 11
221.0099290338523019
 21
177.2740978183520042
 31
0.0
  0
LINE
  5
278E1
  8
壁
 10
213.7416084881074028
 20
167.471917111202913
 30
0.0
 11
221.0099290338523019
 21
174.7547118262860124
 31
0.0
  0
LINE
  5
278E2
  8
壁
 10
213.7416084881074028
 20
172.646431921847892
 30
0.0
 11
221.0099290338523019
 21
179.9292266369320998
 31
0.0
  0
LINE
  5
278E3
  8
壁
 10
213.7416084881074028
 20
169.9913031032677111
 30
0.0
 11
221.0099290338523019
 21
177.2740978183520042
 31
0.0
  0
LINE
  5
278E4
  8
壁
 10
213.7416084881074028
 20
45.9533715711325499
 30
0.0
 11
221.0099290338523019
 21
53.2361662862156777
 31
0.0
  0
LINE
  5
278E5
  8
壁
 10
213.7416084881074028
 20
51.1278863817775004
 30
0.0
 11
221.0099290338523019
 21
58.410681096861758
 31
0.0
  0
LINE
  5
278E6
  8
壁
 10
213.7416084881074028
 20
48.4727575631973835
 30
0.0
 11
221.0099290338523019
 21
55.7555522782816411
 31
0.0
  0
LINE
  5
278E7
  8
壁
 10
213.7416084881074028
 20
45.9533715711325499
 30
0.0
 11
221.0099290338523019
 21
53.2361662862156777
 31
0.0
  0
LINE
  5
278E8
  8
壁
 10
213.7416084881074028
 20
51.1278863817775004
 30
0.0
 11
221.0099290338523019
 21
58.410681096861758
 31
0.0
  0
LINE
  5
278E9
  8
壁
 10
213.7416084881074028
 20
48.4727575631973835
 30
0.0
 11
221.0099290338523019
 21
55.7555522782816411
 31
0.0
  0
LINE
  5
278EF
  8
PL2
 10
211.7416084881074028
 20
126.7674409551204064
 30
0.0
 11
211.7416084881074028
 21
127.6118390235290008
 31
0.0
  0
LINE
  5
278F8
  8
PL9
 10
208.7219926510225037
 20
127.6157585242293067
 30
0.0
 11
208.7055172823432088
 21
100.4829721097345043
 31
0.0
  0
LINE
  5
278F9
  8
PL9
 10
208.7050715122879865
 20
99.6496387764012752
 30
0.0
 11
208.6786124255166897
 21
50.1863813862871595
 31
0.0
  0
LINE
  5
278FA
  8
PL9
 10
208.6786124255166897
 20
50.1863813862871595
 30
0.0
 11
213.6786124255166044
 21
50.1863813862871595
 31
0.0
  0
LINE
  5
278FB
  8
PL3
 10
209.2996927710507009
 20
110.2785056901957006
 30
0.0
 11
210.2996927710507009
 21
110.2785056901957006
 31
0.0
  0
LINE
  5
278FC
  8
PL3
 10
210.2996927710507009
 20
110.2785056901957006
 30
0.0
 11
210.3114330184901064
 21
118.8536754354777969
 31
0.0
  0
LINE
  5
278FD
  8
PL3
 10
210.3114330184901064
 20
118.8536754354777969
 30
0.0
 11
209.3075622788765884
 21
118.8536754354777969
 31
0.0
  0
LINE
  5
278FE
  8
PL3
 10
209.3075622788765884
 20
118.8536754354777969
 30
0.0
 11
209.3075622788765884
 21
110.2785056901957006
 31
0.0
  0
LINE
  5
278FF
  8
PL3
 10
209.3063809130796926
 20
62.8526374385948472
 30
0.0
 11
210.3063809130796926
 21
62.8526374385948472
 31
0.0
  0
LINE
  5
27900
  8
PL3
 10
210.3063809130796926
 20
62.8526374385948472
 30
0.0
 11
210.3106512498169991
 21
58.9459990379410783
 31
0.0
  0
LINE
  5
27901
  8
PL3
 10
210.3106512498169991
 20
58.9459990379410783
 30
0.0
 11
209.3075622788765884
 21
58.9459990379410783
 31
0.0
  0
LINE
  5
27902
  8
PL3
 10
209.3075622788765884
 20
58.9459990379410783
 30
0.0
 11
209.3075622788765884
 21
62.8526374385947975
 31
0.0
  0
LINE
  5
27903
  8
PL4
 10
210.3106512498162033
 20
58.9459990379410783
 30
0.0
 11
210.9773179164828036
 21
58.9459990379410783
 31
0.0
  0
LINE
  5
27904
  8
PL4
 10
210.9773179164828036
 20
58.9459990379410783
 30
0.0
 11
210.9773179164828036
 21
99.7641687275039999
 31
0.0
  0
LINE
  5
27905
  8
PL4
 10
210.9773179164828036
 20
100.9426800294811954
 30
0.0
 11
210.9773179164828889
 21
118.8520149358545979
 31
0.0
  0
TEXT
  5
279B6
  8
注釈
 10
223.8220826957906127
 20
135.6088249633100133
 30
0.0
 40
2.9999999999999978
  1
ＡＢＳ樹脂
  7
角ゴ
  0
LINE
  5
279B7
  8
注釈
 10
222.8048339357249006
 20
135.118947744649887
 30
0.0
 11
242.0859697014008987
 21
135.118947744649887
 31
0.0
1001
ACAD
1000
DSTYLE
1002
{
1070
    41
1040
0.5
1070
    42
1040
1.0
1070
    43
1040
3.0
1070
    44
1040
0.0
1070
    73
1070
     0
1070
    74
1070
     0
1070
    77
1070
     3
1070
    78
1070
    13
1070
   140
1040
2.399999999999999
1070
   141
1040
0.0
1070
   143
1040
0.0394
1070
   147
1040
0.7
1070
   171
1070
     4
1070
   172
1070
     1
1070
   173
1070
     1
1070
   176
1070
     2
1070
   177
1070
     2
1070
   178
1070
     2
1070
   271
1070
     0
1070
   272
1070
     0
1070
   273
1070
     8
1070
   274
1070
     4
1070
   284
1070
    13
1070
   341
1005
36B9
1070
   343
1005
36B9
1070
   344
1005
36B9
1002
}
  0
TEXT
  5
279BC
  8
注釈
 10
222.8535490984658054
 20
128.06135111732101
 30
0.0
 40
2.9999999999999978
  1
ベース：アルミ複合板 t3
  7
角ゴ
  0
LINE
  5
279BD
  8
注釈
 10
222.2841621859101053
 20
127.5714738986609973
 30
0.0
 11
267.3630556037368251
 21
127.5714738986609973
 31
0.0
  0
TEXT
  5
279D1
  8
注釈
 10
235.8104542751063093
 20
36.5556966418347429
 30
0.0
 40
3.0
  1
S=1:3
  7
角ゴ
  0
LINE
  5
279D3
  8
注釈
 10
224.9620169739114885
 20
141.7207816054728937
 30
0.0
 11
288.3405413518340197
 21
141.7207816054728937
 31
0.0
  0
TEXT
  5
279D4
  8
注釈
 10
225.4741324306816068
 20
142.3988850544380966
 30
0.0
 40
3.0
  1
表示基板：アルミ型材/アルミt1貼り 
  7
角ゴ
  0
LINE
  5
279D6
  8
注釈
 10
223.9572905186645073
 20
117.3662283564646032
 30
0.0
 11
283.421921549396302
 21
117.3662283564646032
 31
0.0
  0
LINE
  5
279D9
  8
注釈
 10
224.6306453273600994
 20
84.3176588044619137
 30
0.0
 11
248.4812183841910098
 21
84.3176588044619137
 31
0.0
  0
TEXT
  5
279DA
  8
注釈
 10
225.1427607841301892
 20
84.9957622534271167
 30
0.0
 40
3.0
  1
マグネットt2
  7
角ゴ
  0
LINE
  5
279DC
  8
注釈
 10
225.9682489974300097
 20
91.3487044638512202
 30
0.0
 11
257.1228244731167933
 21
91.3487044638512771
 31
0.0
  0
TEXT
  5
279DD
  8
注釈
 10
226.4803644542000995
 20
92.0268079128164089
 30
0.0
 40
3.0
  1
スチール複合板t2
  7
角ゴ
  0
LINE
  5
27A05
  8
PL9
 10
213.7415890232745994
 20
56.5223094075727701
 30
0.0
 11
213.7415890232745994
 21
46.5223094075727701
 31
0.0
  0
LINE
  5
27A06
  8
PL9
 10
213.7416084881074028
 20
63.8643705033450715
 30
0.0
 11
212.7416084881074028
 21
63.8643705033450715
 31
0.0
  0
LINE
  5
27A07
  8
PL9
 10
212.7416084881074028
 20
73.8643705033450715
 30
0.0
 11
213.7416084881074028
 21
73.8643705033450715
 31
0.0
  0
LINE
  5
27A08
  8
PL9
 10
212.7416084881074028
 20
73.8643705033450715
 30
0.0
 11
212.7416084881074028
 21
63.8643705033450715
 31
0.0
  0
LINE
  5
27A09
  8
PL9
 10
210.3108086786575939
 20
58.9459993905376791
 30
0.0
 11
210.3112084138701903
 21
99.6496387764012752
 31
0.0
  0
LINE
  5
27A0A
  8
PL9
 10
210.3112169989744871
 20
100.5238299391461965
 30
0.0
 11
210.3114330184901064
 21
118.8536754354777969
 31
0.0
  0
LINE
  5
27A0B
  8
PL1
 10
209.2996927710507009
 20
90.2785056901956864
 30
0.0
 11
209.2996927710507009
 21
82.9505476721085557
 31
0.0
  0
TEXT
  5
27A15
  8
注釈
 10
262.8998083995762158
 20
136.9311631636043955
 30
0.0
 40
2.9999999999999978
  1
アルマイト仕上
  7
角ゴ
  0
LINE
  5
27A32
  8
ビス
  6
CONTINUOUS
 62
     5
 10
218.2065260030958029
 20
68.8785539607209216
 30
0.0
 11
217.491284572963508
 21
69.0816538675752554
 31
0.0
  0
LINE
  5
27A33
  8
ビス
  6
CONTINUOUS
 62
     5
 10
218.1988233596725024
 20
68.8294182921172251
 30
0.0
 11
217.4995326675629883
 21
69.0279888285097627
 31
0.0
  0
LINE
  5
27A34
  8
ビス
  6
CONTINUOUS
 62
     5
 10
216.4042320068269021
 20
69.3539781264190651
 30
0.0
 11
218.8669892197036972
 21
69.3539781264190651
 31
0.0
  0
LINE
  5
27A35
  8
ビス
  6
CONTINUOUS
 62
     5
 10
216.4042320068269021
 20
68.3539941264190816
 30
0.0
 11
218.8669892197036972
 21
68.3539941264190816
 31
0.0
  0
LINE
  5
27A36
  8
ビス
  6
CONTINUOUS
 62
     5
 10
219.2740365665576121
 20
68.9522574636264949
 30
0.0
 11
219.2740365665576121
 21
68.7557147892116518
 31
0.0
  0
LINE
  5
27A37
  8
ビス
  6
CONTINUOUS
 62
     5
 10
219.2740365665576121
 20
68.9522574636264949
 30
0.0
 11
218.8669892197036972
 21
69.3539781264190651
 31
0.0
  0
LINE
  5
27A38
  8
ビス
  6
CONTINUOUS
 62
     5
 10
219.2740365665576121
 20
68.8785539607209216
 30
0.0
 11
218.2065260030958029
 21
68.8785539607209216
 31
0.0
  0
LINE
  5
27A39
  8
ビス
  6
CONTINUOUS
 62
     5
 10
219.2740365665576121
 20
68.8294182921172251
 30
0.0
 11
218.1988233596725024
 21
68.8294182921172251
 31
0.0
  0
LINE
  5
27A3A
  8
ビス
  6
CONTINUOUS
 62
     5
 10
219.2740365665576121
 20
68.7557147892116518
 30
0.0
 11
218.8669892197036972
 21
68.3539941264190816
 31
0.0
  0
LINE
  5
27A3B
  8
ビス
  6
CONTINUOUS
 62
     5
 10
215.8256237798925952
 20
68.8364576967272228
 30
0.0
 11
215.0634991082391991
 21
68.8364576967272228
 31
0.0
  0
LINE
  5
27A3C
  8
ビス
  6
CONTINUOUS
 62
     5
 10
215.8385030445452912
 20
68.7873220281235263
 30
0.0
 11
215.0634991082391991
 21
68.7873220281235263
 31
0.0
  0
LINE
  5
27A3D
  8
ビス
  6
CONTINUOUS
 62
     5
 10
215.193026601141014
 20
69.3539781264190651
 30
0.0
 11
213.7416084881074028
 21
69.3539781264190651
 31
0.0
  0
LINE
  5
27A3E
  8
ビス
  6
CONTINUOUS
 62
     5
 10
215.193026601141014
 20
68.353996459752409
 30
0.0
 11
213.7416084881074028
 21
68.353996459752409
 31
0.0
  0
LINE
  5
27A3F
  8
ビス
  6
CONTINUOUS
 62
     5
 10
216.4042320068269021
 20
69.3539781264190651
 30
0.0
 11
215.193026601141014
 21
69.7660720541236401
 31
0.0
  0
LINE
  5
27A40
  8
ビス
  6
CONTINUOUS
 62
     5
 10
216.4508467424668936
 20
69.2558819675527957
 30
0.0
 11
215.193026601141014
 21
69.6838358389206149
 31
0.0
  0
LINE
  5
27A41
  8
ビス
  6
CONTINUOUS
 62
     5
 10
216.4508467424668936
 20
69.2558819675527957
 30
0.0
 11
215.193026601141014
 21
69.2558819675527388
 31
0.0
  0
LINE
  5
27A42
  8
ビス
  6
CONTINUOUS
 62
     5
 10
215.193026601141014
 20
69.7660720541236401
 30
0.0
 11
215.193026601141014
 21
69.6838358389206149
 31
0.0
  0
LINE
  5
27A43
  8
ビス
  6
CONTINUOUS
 62
     5
 10
216.4508467424668936
 20
68.4520926186186216
 30
0.0
 11
215.193026601141014
 21
68.4520926186187353
 31
0.0
  0
LINE
  5
27A44
  8
ビス
  6
CONTINUOUS
 62
     5
 10
216.4508467424668936
 20
68.4520926186186216
 30
0.0
 11
215.193026601141014
 21
68.0241387472507881
 31
0.0
  0
LINE
  5
27A45
  8
ビス
  6
CONTINUOUS
 62
     5
 10
216.4042320068269021
 20
68.353996459752409
 30
0.0
 11
215.193026601141014
 21
67.9419025320477772
 31
0.0
  0
LINE
  5
27A46
  8
ビス
  6
CONTINUOUS
 62
     5
 10
215.193026601141014
 20
67.9419025320477772
 30
0.0
 11
215.193026601141014
 21
68.0241387472507881
 31
0.0
  0
LINE
  5
27A47
  8
ビス
  6
CONTINUOUS
 62
     5
 10
215.193026601141014
 20
69.2558819675527388
 30
0.0
 11
215.193026601141014
 21
69.3539781264190651
 31
0.0
  0
LINE
  5
27A48
  8
ビス
  6
CONTINUOUS
 62
     5
 10
215.193026601141014
 20
68.4520926186187353
 30
0.0
 11
215.193026601141014
 21
68.353996459752409
 31
0.0
  0
LINE
  5
27A49
  8
ビス
  6
CONTINUOUS
 62
     5
 10
216.1366233056675128
 20
69.0038374578429625
 30
0.0
 11
215.8256237798925952
 21
68.8364576967272228
 31
0.0
  0
LINE
  5
27A4A
  8
ビス
  6
CONTINUOUS
 62
     5
 10
216.1395253070425042
 20
68.9493320320350449
 30
0.0
 11
215.8385030445452912
 21
68.7873220281235263
 31
0.0
  0
LINE
  5
27A4B
  8
ビス
  6
CONTINUOUS
 62
     5
 10
217.491284572963508
 20
69.0816538675752554
 30
0.0
 11
216.8995933655577915
 21
68.692572483196443
 31
0.0
  0
LINE
  5
27A4C
  8
ビス
  6
CONTINUOUS
 62
     5
 10
217.4995326675629883
 20
69.0279888285097627
 30
0.0
 11
216.9050058977840933
 21
68.6370428490180302
 31
0.0
  0
LINE
  5
27A4D
  8
ビス
  6
CONTINUOUS
 62
     5
 10
216.8995933655577915
 20
68.692572483196443
 30
0.0
 11
216.1366233056675128
 21
69.0038374578429625
 31
0.0
  0
LINE
  5
27A4E
  8
ビス
  6
CONTINUOUS
 62
     5
 10
216.8995933655577915
 20
68.692572483196443
 30
0.0
 11
216.1366233056675128
 21
69.0038374578429625
 31
0.0
  0
LINE
  5
27A4F
  8
ビス
  6
CONTINUOUS
 62
     5
 10
216.9050058977840933
 20
68.6370428490180302
 30
0.0
 11
216.1395253070425042
 21
68.9493320320350449
 31
0.0
  0
LINE
  5
27A50
  8
ビス
  6
CONTINUOUS
 62
     5
 10
214.7790414286112934
 20
68.353996459752409
 30
0.0
 11
214.0749418214408024
 21
68.1920673206471406
 31
0.0
  0
LINE
  5
27A51
  8
ビス
  6
CONTINUOUS
 62
     5
 10
214.7790414286112934
 20
69.3539781264190651
 30
0.0
 11
214.0749418214408024
 21
69.5159072655243335
 31
0.0
  0
LINE
  5
27A52
  8
ビス
  6
CONTINUOUS
 62
     5
 10
215.0634991082391991
 20
68.8364576967272228
 30
0.0
 11
215.0634991082391991
 21
68.7873220281235263
 31
0.0
  0
LINE
  5
27A53
  8
ビス
 62
     5
 10
213.7416084881074028
 20
68.353996459752409
 30
0.0
 11
213.7416084881074028
 21
69.3539781264190083
 31
0.0
  0
LINE
  5
27A54
  8
ビス
 62
     5
 10
213.7416084881074028
 20
68.8539872930857086
 30
0.0
 11
214.2058007241647886
 21
68.8539872930857086
 31
0.0
  0
LINE
  5
27A55
  8
ビス
 10
213.7416084881074028
 20
68.8539872930857086
 30
0.0
 11
215.0962733775338904
 21
68.8539872930857086
 31
0.0
  0
LINE
  5
27A7A
  8
ビス
 10
211.7434466953675951
 20
70.1903513228900238
 30
0.0
 11
211.7397759647473094
 21
67.5236871826489278
 31
0.0
  0
LINE
  5
27A7B
  8
ビス
 10
211.7397759647473094
 20
67.5236871826489278
 30
0.0
 11
212.7330627683963087
 21
68.1889871965203724
 31
0.0
  0
LINE
  5
27A7C
  8
ビス
 10
211.7434466953675951
 20
70.1903513228900238
 30
0.0
 11
212.7341464529131088
 21
69.5223203013484863
 31
0.0
  0
LINE
  5
27AFD
  8
PL2
 10
210.3063809130796074
 20
77.2697099024107956
 30
0.0
 11
209.639714246413007
 21
77.2697099024107956
 31
0.0
  0
LINE
  5
27AFE
  8
PL2
 10
209.639714246413007
 20
67.2697099024107956
 30
0.0
 11
210.3063809130796074
 21
67.2697099024107956
 31
0.0
  0
LINE
  5
27AFF
  8
寸法
 10
208.973047579746293
 20
62.8526374385948472
 30
0.0
 11
206.3856763180355927
 21
62.8526374385948472
 31
0.0
  0
LINE
  5
27B06
  8
注釈
 10
215.296918488272695
 20
99.6377955005700073
 30
0.0
 11
212.2585145342521002
 21
99.6377955005700073
 31
0.0
  0
LINE
  5
27B07
  8
注釈
 10
215.296918488272695
 20
100.4711288339032933
 30
0.0
 11
211.9133365656082049
 21
100.4711288339032933
 31
0.0
  0
LINE
  5
27B08
  8
注釈
 10
210.6155371382074009
 20
99.6377955005700073
 30
0.0
 11
207.7518111241388112
 21
99.6377955005700073
 31
0.0
  0
LINE
  5
27B09
  8
注釈
 10
210.2703591695627949
 20
100.4711288339032933
 30
0.0
 11
207.7518111241388112
 21
100.4711288339032933
 31
0.0
  0
LINE
  5
27B0A
  8
注釈
 10
211.9133365656082049
 20
100.4711288339032933
 30
0.0
 11
211.6751812009187859
 21
100.2329734692146985
 31
0.0
  0
LINE
  5
27B0B
  8
注釈
 10
212.2585145342521002
 20
99.6377955005700073
 30
0.0
 11
211.6751812009187859
 21
99.0544621672366361
 31
0.0
  0
LINE
  5
27B0C
  8
注釈
 10
210.8536925028961093
 20
99.8759508652594832
 30
0.0
 11
210.6155371382074009
 21
99.6377955005700073
 31
0.0
  0
LINE
  5
27B0D
  8
注釈
 10
210.8536925028961093
 20
99.8759508652594832
 30
0.0
 11
211.6751812009187859
 21
99.0544621672366361
 31
0.0
  0
LINE
  5
27B0E
  8
注釈
 10
210.8536925028961093
 20
101.0544621672365935
 30
0.0
 11
210.2703591695627949
 21
100.4711288339032933
 31
0.0
  0
LINE
  5
27B0F
  8
注釈
 10
210.8536925028961093
 20
101.0544621672365935
 30
0.0
 11
211.6751812009187859
 21
100.2329734692146985
 31
0.0
  0
LINE
  5
282E8
  8
本体1
 10
93.2851498580700849
 20
90.6789465900679374
 30
0.0
 11
76.2851498580700422
 21
90.6789465900679374
 31
0.0
  0
LINE
  5
282E9
  8
本体1
 10
93.2851498580700849
 20
84.6789465900679232
 30
0.0
 11
76.2851498580700422
 21
84.6789465900679232
 31
0.0
  0
LINE
  5
282EA
  8
本体1
 10
93.2851498580700849
 20
82.478946590067892
 30
0.0
 11
76.2851498580700422
 21
82.478946590067892
 31
0.0
  0
LINE
  5
282EB
  8
本体1
 10
74.4851498580700735
 20
90.6789465900678664
 30
0.0
 11
57.4851498580700522
 21
90.6789465900678664
 31
0.0
  0
LINE
  5
282EC
  8
本体1
 10
74.4851498580700735
 20
84.6789465900678806
 30
0.0
 11
57.4851498580700877
 21
84.6789465900678806
 31
0.0
  0
LINE
  5
282ED
  8
本体1
 10
74.4851498580700735
 20
82.478946590067892
 30
0.0
 11
57.4851498580700877
 21
82.478946590067892
 31
0.0
  0
LINE
  5
282EE
  8
本体1
 10
57.4851498580700877
 20
90.6789465900678664
 30
0.0
 11
57.4851498580700877
 21
84.6789465900678806
 31
0.0
  0
LINE
  5
282EF
  8
本体1
 10
74.4851498580700735
 20
90.6789465900679374
 30
0.0
 11
74.4851498580700735
 21
84.6789465900678806
 31
0.0
  0
LINE
  5
282F0
  8
本体1
 10
76.2851498580700422
 20
90.6789465900679374
 30
0.0
 11
76.2851498580700706
 21
84.6789465900679232
 31
0.0
  0
LINE
  5
282F1
  8
本体1
 10
93.2851498580700849
 20
90.6789465900679374
 30
0.0
 11
93.2851498580700706
 21
84.6789465900679232
 31
0.0
  0
LINE
  5
282F2
  8
本体1
 10
93.2851498580700849
 20
82.478946590067892
 30
0.0
 11
76.2851498580700706
 21
82.478946590067892
 31
0.0
  0
LINE
  5
282F3
  8
本体1
 10
93.2851498580700849
 20
76.478946590067892
 30
0.0
 11
76.2851498580700706
 21
76.478946590067892
 31
0.0
  0
LINE
  5
282F4
  8
本体1
 10
93.2851498580700849
 20
74.2789465900679033
 30
0.0
 11
76.2851498580700706
 21
74.2789465900679033
 31
0.0
  0
LINE
  5
282F5
  8
本体1
 10
74.4851498580700735
 20
82.478946590067892
 30
0.0
 11
57.4851498580700877
 21
82.478946590067892
 31
0.0
  0
LINE
  5
282F6
  8
本体1
 10
74.4851498580700735
 20
76.478946590067892
 30
0.0
 11
57.4851498580700877
 21
76.478946590067892
 31
0.0
  0
LINE
  5
282F7
  8
本体1
 10
74.4851498580700735
 20
74.2789465900678465
 30
0.0
 11
57.4851498580700877
 21
74.2789465900678465
 31
0.0
  0
LINE
  5
282F8
  8
本体1
 10
57.4851498580700877
 20
82.478946590067892
 30
0.0
 11
57.4851498580700877
 21
76.478946590067892
 31
0.0
  0
LINE
  5
282F9
  8
本体1
 10
74.4851498580700735
 20
82.478946590067892
 30
0.0
 11
74.4851498580701161
 21
76.478946590067892
 31
0.0
  0
LINE
  5
282FA
  8
本体1
 10
76.2851498580700706
 20
82.478946590067892
 30
0.0
 11
76.2851498580700706
 21
76.478946590067892
 31
0.0
  0
LINE
  5
282FB
  8
本体1
 10
93.2851498580700849
 20
82.478946590067892
 30
0.0
 11
93.2851498580700706
 21
76.478946590067892
 31
0.0
  0
LINE
  5
282FC
  8
本体1
 10
93.2851498580700849
 20
74.2789465900678465
 30
0.0
 11
76.2851498580700706
 21
74.2789465900678465
 31
0.0
  0
LINE
  5
282FD
  8
本体1
 10
93.2851498580700849
 20
68.2789465900678465
 30
0.0
 11
76.2851498580700706
 21
68.2789465900678465
 31
0.0
  0
LINE
  5
282FE
  8
本体1
 10
74.4851498580700735
 20
74.2789465900678465
 30
0.0
 11
57.4851498580700877
 21
74.2789465900678465
 31
0.0
  0
LINE
  5
282FF
  8
本体1
 10
74.4851498580700735
 20
68.2789465900678465
 30
0.0
 11
57.4851498580700877
 21
68.2789465900678465
 31
0.0
  0
LINE
  5
28300
  8
本体1
 10
57.4851498580700877
 20
74.2789465900678465
 30
0.0
 11
57.4851498580700877
 21
68.2789465900678465
 31
0.0
  0
LINE
  5
28301
  8
本体1
 10
74.4851498580700735
 20
74.2789465900678465
 30
0.0
 11
74.4851498580701161
 21
68.2789465900678465
 31
0.0
  0
LINE
  5
28302
  8
本体1
 10
76.2851498580700706
 20
74.2789465900679033
 30
0.0
 11
76.2851498580700991
 21
68.2789465900678465
 31
0.0
  0
LINE
  5
28303
  8
本体1
 10
93.2851498580700849
 20
74.2789465900679033
 30
0.0
 11
93.2851498580700849
 21
68.2789465900678465
 31
0.0
  0
LINE
  5
28304
  8
本体1
 10
93.2851498580700849
 20
68.2789465900678465
 30
0.0
 11
76.2851498580700706
 21
68.2789465900678465
 31
0.0
  0
LINE
  5
28305
  8
本体1
 10
74.4851498580700735
 20
68.2789465900678465
 30
0.0
 11
57.4851498580700877
 21
68.2789465900678465
 31
0.0
  0
LINE
  5
28306
  8
本体1
 10
93.2851498580700849
 20
66.0789465900678437
 30
0.0
 11
76.2851498580700706
 21
66.0789465900678437
 31
0.0
  0
LINE
  5
28307
  8
本体1
 10
74.4851498580700735
 20
66.0789465900678437
 30
0.0
 11
57.4851498580700877
 21
66.0789465900678437
 31
0.0
  0
LINE
  5
28308
  8
本体1
 10
93.2851498580700849
 20
66.0789465900678437
 30
0.0
 11
76.2851498580700991
 21
66.0789465900678437
 31
0.0
  0
LINE
  5
28309
  8
本体1
 10
93.2851498580700849
 20
60.0789465900678579
 30
0.0
 11
76.2851498580700991
 21
60.0789465900678579
 31
0.0
  0
LINE
  5
2830A
  8
本体1
 10
93.2851498580700849
 20
57.8789465900678692
 30
0.0
 11
76.2851498580700991
 21
57.8789465900678692
 31
0.0
  0
LINE
  5
2830B
  8
本体1
 10
74.4851498580700735
 20
66.0789465900678437
 30
0.0
 11
57.4851498580700877
 21
66.078946590067801
 31
0.0
  0
LINE
  5
2830C
  8
本体1
 10
74.4851498580700735
 20
60.0789465900678579
 30
0.0
 11
57.4851498580700877
 21
60.078946590067801
 31
0.0
  0
LINE
  5
2830D
  8
本体1
 10
74.4851498580700735
 20
57.8789465900678692
 30
0.0
 11
57.4851498580700877
 21
57.8789465900678124
 31
0.0
  0
LINE
  5
2830E
  8
本体1
 10
57.4851498580700877
 20
66.0789465900678437
 30
0.0
 11
57.4851498580700877
 21
60.078946590067801
 31
0.0
  0
LINE
  5
2830F
  8
本体1
 10
74.4851498580700735
 20
66.0789465900678437
 30
0.0
 11
74.4851498580701445
 21
60.0789465900678579
 31
0.0
  0
LINE
  5
28310
  8
本体1
 10
76.2851498580700991
 20
66.0789465900678437
 30
0.0
 11
76.2851498580700991
 21
60.0789465900678579
 31
0.0
  0
LINE
  5
28311
  8
本体1
 10
93.2851498580700849
 20
66.0789465900679147
 30
0.0
 11
93.2851498580700849
 21
60.0789465900678579
 31
0.0
  0
LINE
  5
28312
  8
本体1
 10
93.2851498580700849
 20
57.8789465900678692
 30
0.0
 11
76.2851498580700991
 21
57.8789465900678692
 31
0.0
  0
LINE
  5
28313
  8
本体1
 10
93.2851498580700849
 20
51.8789465900678621
 30
0.0
 11
76.2851498580700991
 21
51.8789465900678621
 31
0.0
  0
LINE
  5
28314
  8
本体1
 10
74.4851498580700735
 20
57.8789465900678124
 30
0.0
 11
57.4851498580700877
 21
57.8789465900678124
 31
0.0
  0
LINE
  5
28315
  8
本体1
 10
74.4851498580700735
 20
51.8789465900678124
 30
0.0
 11
57.4851498580700877
 21
51.8789465900678124
 31
0.0
  0
LINE
  5
28316
  8
本体1
 10
57.4851498580700877
 20
57.8789465900678124
 30
0.0
 11
57.4851498580700877
 21
51.8789465900678124
 31
0.0
  0
LINE
  5
28317
  8
本体1
 10
74.4851498580701161
 20
57.8789465900678692
 30
0.0
 11
74.4851498580701445
 21
51.8789465900678124
 31
0.0
  0
LINE
  5
28318
  8
本体1
 10
76.2851498580700991
 20
57.8789465900678692
 30
0.0
 11
76.2851498580700991
 21
51.8789465900678621
 31
0.0
  0
LINE
  5
28319
  8
本体1
 10
93.2851498580700849
 20
57.8789465900678692
 30
0.0
 11
93.2851498580700849
 21
51.8789465900678621
 31
0.0
  0
LINE
  5
2831A
  8
本体1
 10
93.2851498580700849
 20
51.8789465900678124
 30
0.0
 11
76.2851498580700991
 21
51.8789465900678124
 31
0.0
  0
LINE
  5
2831B
  8
本体1
 10
74.4851498580700735
 20
51.8789465900678124
 30
0.0
 11
57.4851498580700877
 21
51.8789465900678124
 31
0.0
  0
TEXT
  5
28390
  8
注釈
 10
110.8252732531069
 20
131.4663185370542067
 30
0.0
 40
3.0
  1
カラー塗装
  7
角ゴ
  0
TEXT
  5
28391
  8
注釈
 10
72.3223363683021319
 20
131.5512100216257068
 30
0.0
 40
3.0
  1
キャップ：樹脂成型品
  7
角ゴ
  0
LINE
  5
28394
  8
注釈
 10
97.2922940530134213
 20
108.1014281239537951
 30
0.0
 11
150.1091406628557081
 21
108.1014281239537951
 31
0.0
  0
TEXT
  5
28395
  8
注釈
 10
97.8044095097830137
 20
108.7795315729185006
 30
0.0
 40
3.0
  1
表示基板：アクリルマット板t3 
  7
角ゴ
  0
TEXT
  5
28396
  8
注釈
 10
135.9929999798872871
 20
104.3744944712280045
 30
0.0
 40
2.9999999999999978
  1
UV印刷
  7
角ゴ
  0
TEXT
  5
28397
  8
注釈
 10
82.2889132447413232
 20
120.4291861912706025
 30
0.0
 40
2.9999999999999978
  1
アルマイト仕上
  7
角ゴ
  0
TEXT
  5
28398
  8
注釈
 10
71.1291831747681442
 20
124.8591628267442957
 30
0.0
 40
2.9999999999999978
  1
フレーム：アルミ型材 
  7
角ゴ
  0
LINE
  5
28399
  8
注釈
  6
BYBLOCK
 10
100.1643655356558043
 20
97.0589681612498367
 30
0.0
 11
164.7479306944175903
 21
97.0589683072807929
 31
0.0
  0
TEXT
  5
2839A
  8
注釈
  6
CONTINUOUS
 10
100.1690977854088942
 20
97.677246211923844
 30
0.0
 40
2.9999999999999978
  1
表示基板：アルミ板t1 アルマイト仕上
  7
角ゴ
  0
LINE
  5
2839C
  8
注釈
  6
BYBLOCK
 10
103.8007224571242944
 20
88.6210524698138897
 30
0.0
 11
162.6443706610326103
 21
88.6210526028662571
 31
0.0
  0
TEXT
  5
2839D
  8
注釈
  6
CONTINUOUS
 10
103.8054547068773985
 20
89.239330520487897
 30
0.0
 40
2.9999999999999978
  1
表示基板：白アクリル板t2　艶あり
  7
角ゴ
  0
TEXT
  5
2839E
  8
注釈
 10
148.5484199334250093
 20
84.2359569722134438
 30
0.0
 40
2.9999999999999978
  1
UV印刷
  7
角ゴ
  0
LINE
  5
283A0
  8
注釈
 10
70.6988363400694482
 20
130.2438454083209081
 30
0.0
 11
128.1112919789007094
 21
130.2438454083209081
 31
0.0
  0
LINE
  5
283A1
  8
注釈
 10
70.5597962622124157
 20
124.3692856080840983
 30
0.0
 11
108.1003432595348954
 21
124.3692856080840983
 31
0.0
  0
LINE
  5
283A3
  8
注釈
 10
83.2758215446552583
 20
114.4618002861182049
 30
0.0
 11
152.7952030960738909
 21
114.4618002861182049
 31
0.0
  0
TEXT
  5
283A4
  8
注釈
 10
83.787937001424865
 20
115.1399037350828962
 30
0.0
 40
3.0
  1
アルミt1曲加工プラライン仕上　UV印刷
  7
角ゴ
  0
LINE
  5
283A5
  8
寸法
 10
209.441865820818407
 20
127.6154598956045021
 30
0.0
 11
213.7416084881074028
 21
127.6154598956045021
 31
0.0
  0
LINE
  5
283A6
  8
壁
 10
213.7416084881074028
 20
127.6154598956046016
 30
0.0
 11
213.7416084881074028
 21
107.6145321148404008
 31
0.0
  0
LINE
  5
283A7
  8
PL2
 10
212.7416084881076017
 20
127.6154598956045021
 30
0.0
 11
212.7416084881076017
 21
127.6118390235290008
 31
0.0
  0
LINE
  5
283A8
  8
PL2
 10
211.741608488107488
 20
127.6154598956046016
 30
0.0
 11
211.741608488107488
 21
127.6118390235290008
 31
0.0
  0
LINE
  5
283A9
  8
寸法
 10
209.3085328219073062
 20
127.6157585242293067
 30
0.0
 11
208.1425035401821049
 21
127.6157585242293067
 31
0.0
  0
LINE
  5
283AA
  8
寸法
 10
209.441865820818407
 20
128.2821265622712019
 30
0.0
 11
213.7416084881074028
 21
128.2821265622712019
 31
0.0
  0
LINE
  5
283AB
  8
寸法
 10
209.4472914780313033
 20
127.6131951180837945
 30
0.0
 11
208.7480407173420076
 21
127.6132027138703933
 31
0.0
  0
LINE
  5
283AC
  8
寸法
 10
208.7480407173420076
 20
127.6132027138703933
 30
0.0
 11
213.7416084881074028
 21
127.6154598956045021
 31
0.0
  0
TEXT
  5
283E9
  8
注釈
 10
240.777283491069312
 20
66.1942273378002142
 30
0.0
 40
2.9999999999999978
  1
アルマイト仕上
  7
角ゴ
  0
TEXT
  5
283EA
  8
注釈
 10
240.777283491069312
 20
66.1942273378002142
 30
0.0
 40
2.9999999999999978
  1
アルマイト仕上
  7
角ゴ
  0
TEXT
  5
283EB
  8
注釈
 10
229.6175534210960905
 20
74.4670261721582278
 30
0.0
 40
2.9999999999999978
  1
フレーム：アルミ型材 
  7
角ゴ
  0
LINE
  5
283EC
  8
注釈
 10
229.0481665085403904
 20
73.9771489534979878
 30
0.0
 11
266.5887135058629269
 21
73.9771489534979878
 31
0.0
  0
TEXT
  5
284B1
  8
注釈
 10
17.7384553993375107
 20
32.9079481099894906
 30
0.0
 40
3.0
  1
S=1:10
  7
角ゴ
  0
TEXT
  5
284BA
  8
枠文字
 10
164.2653350943955104
 20
22.6223770074121795
 30
0.0
 40
2.399999999999999
  1
外来担当医勤務日時掲示板
  0
TEXT
  5
289E4
  8
注釈
  6
CONTINUOUS
 10
224.0217280511172078
 20
117.9845063727166945
 30
0.0
 40
2.9999999999999978
  1
表示基板：白アクリル板t2　艶あり
  7
角ゴ
  0
TEXT
  5
289E5
  8
注釈
 10
269.3204729395728805
 20
113.0595940924706042
 30
0.0
 40
2.9999999999999978
  1
UV印刷
  7
角ゴ
  0
ARC
  5
28A08
  8
LAYER_1
 10
222.9833974917104058
 20
22.7709750362185197
 30
0.0
 40
4.061787112191297
 50
89.774561763963888
 51
107.409214712158402
  0
ARC
  5
28A09
  8
LAYER_1
 10
223.2166567074390002
 20
21.9536201233980393
 30
0.0
 40
4.9115397849239049
 50
107.1528779447292976
 51
122.7041694407162993
  0
ARC
  5
28A0A
  8
LAYER_1
 10
223.4432108413975016
 20
21.5679171419498097
 30
0.0
 40
5.3585348111072273
 50
122.5143026686880035
 51
151.4422313375411022
  0
ARC
  5
28A0B
  8
LAYER_1
 10
222.6843784953273939
 20
22.0371168360078507
 30
0.0
 40
4.4679996454203152
 50
152.075204693492509
 51
162.4664431061260927
  0
ARC
  5
28A0C
  8
LAYER_1
 10
220.1125871502862879
 20
17.5659404133957011
 30
0.0
 40
6.0573570764214688
 50
106.1869913766925038
 51
120.5565189679150961
  0
ARC
  5
28A0D
  8
LAYER_1
 10
220.4240260561145135
 20
16.9976582574978217
 30
0.0
 40
6.705084634301282
 50
120.379471610670393
 51
134.0270165613266897
  0
ARC
  5
28A0E
  8
LAYER_1
 10
220.3169353548618972
 20
17.0972798169198015
 30
0.0
 40
6.5590323467368092
 50
133.959205507972797
 51
147.0394581793796931
  0
ARC
  5
28A0F
  8
LAYER_1
 10
219.6872509567137115
 20
17.5150225105856805
 30
0.0
 40
5.8034262729809054
 50
147.117632338662105
 51
161.2393342340184006
  0
ARC
  5
28A10
  8
LAYER_1
 10
219.2286930684001049
 20
17.7002704231694317
 30
0.0
 40
5.309726234547048
 50
161.5406806768095009
 51
164.7130144987235951
  0
ARC
  5
28A11
  8
LAYER_1
 10
218.4812489662315045
 20
17.8938224600003011
 30
0.0
 40
4.537709773950299
 50
164.5821658495225108
 51
181.1379416725700082
  0
ARC
  5
28A12
  8
LAYER_1
 10
219.4647393333441983
 20
14.6585627026977594
 30
0.0
 40
6.3534002066741371
 50
136.1264810532690035
 51
150.3280710889852969
  0
ARC
  5
28A13
  8
LAYER_1
 10
219.7448748122110942
 20
14.4112911813788198
 30
0.0
 40
6.7267368484317149
 50
116.790182265002997
 51
136.2619295844910141
  0
ARC
  5
28A14
  8
LAYER_1
 10
219.3719127949628955
 20
15.1197373464810294
 30
0.0
 40
5.9262456128093781
 50
102.7486763840949067
 51
116.6585473969473981
  0
ARC
  5
28A15
  8
LAYER_1
 10
219.1529517560846045
 20
16.0035050992762784
 30
0.0
 40
5.0159800657089448
 50
89.7876254855108442
 51
102.5369260245075935
  0
ARC
  5
28A16
  8
LAYER_1
 10
219.1598485362341933
 20
16.9445528064991286
 30
0.0
 40
4.0749146849236491
 50
71.5301524228399046
 51
89.8355527737687538
  0
ARC
  5
28A17
  8
LAYER_1
 10
219.3695206087068073
 20
17.653106645134681
 30
0.0
 40
3.3365310435697562
 50
52.9188080242145418
 51
71.0905070443366895
  0
ARC
  5
28A18
  8
LAYER_1
 10
219.468745602701091
 20
17.8270973804822503
 30
0.0
 40
3.1380026865223201
 50
14.1771758758087394
 51
52.4486940522762808
  0
ARC
  5
28A19
  8
LAYER_1
 10
218.9610805992722078
 20
17.6751217753931584
 30
0.0
 40
3.667499954995777
 50
1.3016898158341681
 51
14.5366375127989897
  0
ARC
  5
28A1A
  8
LAYER_1
 10
217.7605673138592977
 20
20.5425611949269005
 30
0.0
 40
5.6071110217436386
 50
330.2289952864763904
 51
344.3549355515215211
  0
ARC
  5
28A1B
  8
LAYER_1
 10
218.7824447143748046
 20
20.2439118501979713
 30
0.0
 40
4.5425703299292506
 50
344.5063870698654114
 51
1.6792785180651
  0
ARC
  5
28A1C
  8
LAYER_1
 10
219.694692084181213
 20
20.2454831506379094
 30
0.0
 40
3.6307558962827229
 50
2.0763637151197138
 51
19.7748915182061502
  0
ARC
  5
28A1D
  8
LAYER_1
 10
220.1309787381709953
 20
20.3831250021213712
 30
0.0
 40
3.1736812024536269
 50
20.1013340273332908
 51
39.2240270737053933
  0
ARC
  5
28A1E
  8
LAYER_1
 10
220.1630847412525043
 20
20.3876949717891485
 30
0.0
 40
3.1459641599956858
 50
39.5293078670283577
 51
67.8762855878639328
  0
ARC
  5
28A1F
  8
LAYER_1
 10
219.9339580722746064
 20
19.8712504530559997
 30
0.0
 40
3.7107177039315591
 50
67.6020632938591461
 51
83.9860200889705055
  0
ARC
  5
28A20
  8
LAYER_1
 10
219.8351847171942097
 20
19.1762806976587683
 30
0.0
 40
4.4122843997494732
 50
83.6559656790470143
 51
89.596544530868087
  0
ARC
  5
28A21
  8
LAYER_1
 10
219.8352816977997009
 20
18.7623663768753097
 30
0.0
 40
4.8261887154397582
 50
89.6322976021641153
 51
95.2458690883205179
  0
ARC
  5
28A22
  8
LAYER_1
 10
222.8693509223799936
 20
19.5210513904864413
 30
0.0
 40
5.3346459310121892
 50
114.639532739941302
 51
130.6520302684546948
  0
ARC
  5
28A23
  8
LAYER_1
 10
222.5486012292915063
 20
20.2008091795170586
 30
0.0
 40
4.583065110157964
 50
98.6552813760409464
 51
114.5376629644432001
  0
ARC
  5
28A24
  8
LAYER_1
 10
222.4166688015689033
 20
20.9104493326567216
 30
0.0
 40
3.8617245161693941
 50
89.6240271361895822
 51
98.3045851978559142
  0
ARC
  5
28A25
  8
LAYER_1
 10
222.4354122701155063
 20
21.5390335094469094
 30
0.0
 40
3.2330639281711528
 50
69.583717067257524
 51
89.8830917558541245
  0
ARC
  5
28A26
  8
LAYER_1
 10
222.626118665089308
 20
22.1218442979217187
 30
0.0
 40
2.6204531985407669
 50
47.8639240972346727
 51
69.0462712422311711
  0
ARC
  5
28A27
  8
LAYER_1
 10
222.6799519568886012
 20
22.2125051180687016
 30
0.0
 40
2.5171937255588661
 50
14.8896963289754805
 51
47.3881179982457326
  0
ARC
  5
28A28
  8
LAYER_1
 10
222.2785573101263878
 20
22.0893905660281789
 30
0.0
 40
2.9367885685471888
 50
1.296433486943511
 51
15.1987052863237402
  0
ARC
  5
28A29
  8
LAYER_1
 10
221.3351035735028915
 20
24.3788305900465012
 30
0.0
 40
4.471258562890327
 50
330.1867708438143723
 51
344.3996031047547035
  0
ARC
  5
28A2A
  8
LAYER_1
 10
222.1793211335404976
 20
24.1400923676632004
 30
0.0
 40
3.593939529468912
 50
344.4460081624778809
 51
3.8880235407985779
  0
ARC
  5
28A2B
  8
LAYER_1
 10
222.9421190434555911
 20
24.1653168580517317
 30
0.0
 40
2.8313113742845251
 50
4.4254396626594863
 51
24.0157455462446414
  0
ARC
  5
28A2C
  8
LAYER_1
 10
223.2000506482114872
 20
24.2371894410390212
 30
0.0
 40
2.5667579635053799
 50
24.8935828837757498
 51
77.5636605950931823
  0
ARC
  5
28A2D
  8
LAYER_1
 10
222.9897085728449042
 20
23.5176013157243204
 30
0.0
 40
3.3151434965926629
 50
76.6918721903346636
 51
89.8328632735586439
  0
ARC
  5
28A2E
  8
LAYER_1
 10
225.3639360658374073
 20
17.1082640094514389
 30
0.0
 40
0.1017225618467114
 50
286.824711691118921
 51
340.3071140254266993
  0
ARC
  5
28A2F
  8
LAYER_1
 10
224.894448427048502
 20
18.25572954524349
 30
0.0
 40
1.3410977289569821
 50
278.5628068442235872
 51
291.8409640360941921
  0
ARC
  5
28A30
  8
LAYER_1
 10
223.6864524463665873
 20
25.1219397111211187
 30
0.0
 40
8.3124184001315609
 50
274.304231162765916
 51
279.7498093500590812
  0
ARC
  5
28A31
  8
LAYER_1
 10
221.9793576225536071
 20
46.0866687071499186
 30
0.0
 40
29.3464226217220805
 50
269.5576446168324765
 51
274.5557542030002196
  0
ARC
  5
28A32
  8
LAYER_1
 10
221.6538217287958048
 20
50.9801887063393124
 30
0.0
 40
34.2392110303409112
 50
266.6954060207447128
 51
270.1656119244287879
  0
ARC
  5
28A33
  8
LAYER_1
 10
220.3034163663454876
 20
29.2017896163853408
 30
0.0
 40
12.4195286846716595
 50
261.7201575595116196
 51
267.1233650928995189
  0
ARC
  5
28A34
  8
LAYER_1
 10
218.6601239073258114
 20
18.3488369002786307
 30
0.0
 40
1.444439721870578
 50
247.0093839856139937
 51
264.2298997619965917
  0
ARC
  5
28A35
  8
LAYER_1
 10
218.1124373224552073
 20
17.0844183902623996
 30
0.0
 40
0.067336301869921
 50
188.9129687224925078
 51
255.8306195217344055
  0
ARC
  5
28A36
  8
LAYER_1
 10
218.141567267429707
 20
17.0396250861203313
 30
0.0
 40
0.101637479376685
 50
106.7686079684284977
 51
160.2406452734423965
  0
ARC
  5
28A37
  8
LAYER_1
 10
218.611266928268293
 20
15.8905195231846399
 30
0.0
 40
1.3426055017127749
 50
98.5609779356338436
 51
111.819411560531293
  0
ARC
  5
28A38
  8
LAYER_1
 10
219.8195164651158109
 20
9.0148313587938311
 30
0.0
 40
8.3233091265428403
 50
94.3019068433134748
 51
99.7399707080134021
  0
ARC
  5
28A39
  8
LAYER_1
 10
221.5263727105275109
 20
-11.95992017597551
 30
0.0
 40
29.3672837109763805
 50
89.5582556005597041
 51
94.5529850135230561
  0
ARC
  5
28A3A
  8
LAYER_1
 10
221.851130899000907
 20
-16.8507169016079992
 30
0.0
 40
34.2573487630387916
 50
86.6963356821013349
 51
90.1644778980448649
  0
ARC
  5
28A3B
  8
LAYER_1
 10
223.2016016983299949
 20
4.9247422869758131
 30
0.0
 40
12.4406029876012507
 50
81.7316747771048
 51
87.1262815684749938
  0
ARC
  5
28A3C
  8
LAYER_1
 10
224.8452707916765974
 20
15.7962826547039992
 30
0.0
 40
1.4470717268548641
 50
67.0437654305045641
 51
84.2331262618125862
  0
ARC
  5
28A3D
  8
LAYER_1
 10
225.3932873512526953
 20
17.0635384908283712
 30
0.0
 40
0.0672383483216169
 50
8.9385958680350353
 51
75.8986854981506696
  0
LINE
  5
28A3E
  8
LAYER_1
 10
227.0521691184000019
 20
23.7125657073997793
 30
0.0
 11
229.6942541183998969
 21
23.7125657073997793
 31
0.0
  0
ARC
  5
28A3F
  8
LAYER_1
 10
229.7464500694970866
 20
22.288551043210429
 30
0.0
 40
1.4249709404536131
 50
60.8735246432738606
 51
92.0991844703550697
  0
ARC
  5
28A40
  8
LAYER_1
 10
230.0323075409854141
 20
22.9120051166309899
 30
0.0
 40
0.7431625185416341
 50
37.62127235789022
 51
56.7259719698191134
  0
ARC
  5
28A41
  8
LAYER_1
 10
229.9294191038505915
 20
22.8360018202481001
 30
0.0
 40
0.8710559495582748
 50
357.4156439143682746
 51
37.4497418045678714
  0
ARC
  5
28A42
  8
LAYER_1
 10
229.4629037400154061
 20
22.8430635754033808
 30
0.0
 40
1.3374883172564449
 50
345.4682483048349013
 51
358.0145653240612091
  0
ARC
  5
28A43
  8
LAYER_1
 10
229.3059845735718909
 20
22.8721742631961895
 30
0.0
 40
1.4967336548623651
 50
312.6089194964864078
 51
345.8967725871881953
  0
ARC
  5
28A44
  8
LAYER_1
 10
229.3040136404881082
 20
22.9002481002287297
 30
0.0
 40
1.51883152640237
 50
286.9040539110612826
 51
311.9466621261055934
  0
ARC
  5
28A45
  8
LAYER_1
 10
229.5101030511856948
 20
20.4291618138675197
 30
0.0
 40
1.044776069903125
 50
40.4744827001058667
 51
76.97086695971214
  0
ARC
  5
28A46
  8
LAYER_1
 10
229.7586155257833127
 20
20.7089971846260816
 30
0.0
 40
0.6760589036467471
 50
27.044637974328321
 51
36.100742557310447
  0
ARC
  5
28A47
  8
LAYER_1
 10
229.4955917256386044
 20
20.6066494413498802
 30
0.0
 40
0.9572801154066004
 50
347.3279552664341168
 51
25.3423825027549796
  0
ARC
  5
28A48
  8
LAYER_1
 10
228.8625955600732027
 20
20.6493611384519795
 30
0.0
 40
1.5872056216746311
 50
345.4000175847805281
 51
350.8385374984778764
  0
ARC
  5
28A49
  8
LAYER_1
 10
228.6843388201114067
 20
20.6786947240560295
 30
0.0
 40
1.7671778740758091
 50
321.2570294209676263
 51
345.9365033352602268
  0
ARC
  5
28A4A
  8
LAYER_1
 10
228.6365607949217917
 20
20.7067894764297691
 30
0.0
 40
1.8220428700690381
 50
297.9590868388690978
 51
321.5082199876162008
  0
ARC
  5
28A4B
  8
LAYER_1
 10
228.7645233625391938
 20
20.61348951150201
 30
0.0
 40
1.68106690509749
 50
275.1259550640331213
 51
295.5970031780291833
  0
LINE
  5
28A4C
  8
LAYER_1
 10
228.9147191183998018
 20
18.9391457073997884
 30
0.0
 11
228.2654141183998888
 21
18.8729057073996884
 31
0.0
  0
LINE
  5
28A4D
  8
LAYER_1
 10
228.2654141183998888
 20
18.8729057073996884
 30
0.0
 11
225.8289791183997863
 21
18.8729057073996884
 31
0.0
  0
LINE
  5
28A4E
  8
LAYER_1
 10
225.8289791183997863
 20
18.8729057073996884
 30
0.0
 11
227.0521691184000019
 21
23.7125657073997793
 31
0.0
  0
LINE
  5
28A4F
  8
LAYER_1
 10
227.5177391183997884
 20
19.9120907073997806
 30
0.0
 11
228.2367491183995867
 21
19.9120907073997806
 31
0.0
  0
ARC
  5
28A50
  8
LAYER_1
 10
228.2877156400082868
 20
20.8719258410882311
 30
0.0
 40
0.9611873231517398
 50
266.9604918419499882
 51
301.1827524538215926
  0
ARC
  5
28A51
  8
LAYER_1
 10
228.3982513043810059
 20
20.5685992295178401
 30
0.0
 40
0.6474756930832206
 50
306.7209793112883744
 51
346.5729458564034076
  0
ARC
  5
28A52
  8
LAYER_1
 10
228.6659877120725923
 20
20.5329579091013805
 30
0.0
 40
0.3797785170567319
 50
342.4200028029986242
 51
37.4683038372186985
  0
ARC
  5
28A53
  8
LAYER_1
 10
228.7119447422151097
 20
20.5060361245454104
 30
0.0
 40
0.3630462635295719
 50
45.2767803303608076
 51
76.0047923097400826
  0
ARC
  5
28A54
  8
LAYER_1
 10
228.5127820204307909
 20
19.7369992627366315
 30
0.0
 40
1.15744347097981
 50
75.6450922392333638
 51
91.5195385004562638
  0
LINE
  5
28A55
  8
LAYER_1
 10
228.482089118400097
 20
20.8940357073997696
 30
0.0
 11
227.7658241183999905
 21
20.8940357073997696
 31
0.0
  0
LINE
  5
28A56
  8
LAYER_1
 10
227.7658241183999905
 20
20.8940357073997696
 30
0.0
 11
227.5177391183997884
 21
19.9120907073997806
 31
0.0
  0
LINE
  5
28A57
  8
LAYER_1
 10
227.9977541183999108
 20
21.81244070739967
 30
0.0
 11
228.611059118399794
 21
21.81244070739967
 31
0.0
  0
ARC
  5
28A58
  8
LAYER_1
 10
228.6627559749830141
 20
22.6564194848173308
 30
0.0
 40
0.8455606079471728
 50
266.4947987045131867
 51
301.2083112159746179
  0
ARC
  5
28A59
  8
LAYER_1
 10
228.7319546277927031
 20
22.4049764412635994
 30
0.0
 40
0.5988843306289116
 50
308.0266514935095756
 51
348.0771909355793241
  0
ARC
  5
28A5A
  8
LAYER_1
 10
228.965335841136806
 20
22.4011967057989594
 30
0.0
 40
0.3724271874308775
 50
341.2121082091251765
 51
34.4316897395444883
  0
ARC
  5
28A5B
  8
LAYER_1
 10
229.0439156330392052
 20
22.3939790833633303
 30
0.0
 40
0.3157414083566255
 50
43.6138282060639924
 51
76.4411853446353717
  0
ARC
  5
28A5C
  8
LAYER_1
 10
228.8747678890478028
 20
21.7285370585239903
 30
0.0
 40
1.0023283929857769
 50
75.9595797490933649
 51
91.2661861993573353
  0
LINE
  5
28A5D
  8
LAYER_1
 10
228.8526191183997014
 20
22.7306207073997903
 30
0.0
 11
228.2299541183998883
 21
22.7306207073997903
 31
0.0
  0
LINE
  5
28A5E
  8
LAYER_1
 10
228.2299541183998883
 20
22.7306207073997903
 30
0.0
 11
227.9977541183999108
 21
21.81244070739967
 31
0.0
  0
LINE
  5
28A5F
  8
LAYER_1
 10
230.4825191184000914
 20
18.8729057073996884
 30
0.0
 11
231.7055291183997952
 21
23.7125657073997793
 31
0.0
  0
LINE
  5
28A60
  8
LAYER_1
 10
231.7055291183997952
 20
23.7125657073997793
 30
0.0
 11
234.0577691183999036
 21
23.7125657073997793
 31
0.0
  0
ARC
  5
28A61
  8
LAYER_1
 10
234.174287882652493
 20
20.6448493148434586
 30
0.0
 40
3.0699284173383781
 50
73.8561888366571964
 51
92.1751768912553331
  0
ARC
  5
28A62
  8
LAYER_1
 10
234.7624757175676109
 20
22.8785784511988695
 30
0.0
 40
0.7628023412243876
 50
21.0698800330394391
 51
69.6391164072336863
  0
ARC
  5
28A63
  8
LAYER_1
 10
234.4067387147723025
 20
22.7527593618790611
 30
0.0
 40
1.140036662757081
 50
345.5354904864734067
 51
20.5430428520186901
  0
ARC
  5
28A64
  8
LAYER_1
 10
233.6943533782406917
 20
22.8276742297306008
 30
0.0
 40
1.851555814057978
 50
345.6442340425383009
 51
348.7988082093490902
  0
ARC
  5
28A65
  8
LAYER_1
 10
233.7158962529501878
 20
22.7997746740032703
 30
0.0
 40
1.8238970846912439
 50
321.8539172287271981
 51
346.3255241773512125
  0
ARC
  5
28A66
  8
LAYER_1
 10
233.6614611218028017
 20
22.875294486693079
 30
0.0
 40
1.9135267020430531
 50
298.8727875022022999
 51
321.0823110538232186
  0
ARC
  5
28A67
  8
LAYER_1
 10
233.625404671892511
 20
23.0591478327220187
 30
0.0
 40
2.092718346516826
 50
281.4792839454262889
 51
297.3064737345412141
  0
ARC
  5
28A68
  8
LAYER_1
 10
233.774380384941594
 20
20.1506908469382715
 30
0.0
 40
0.8983516950935942
 50
49.0403829401645766
 51
72.676183220807971
  0
ARC
  5
28A69
  8
LAYER_1
 10
233.5319685568954924
 20
20.1267127720731303
 30
0.0
 40
1.0883095829221889
 50
24.2799524775041
 51
40.1951854723321489
  0
ARC
  5
28A6A
  8
LAYER_1
 10
233.6412675578087033
 20
20.043860098356749
 30
0.0
 40
1.029817394424557
 50
12.8736747914057599
 51
30.9977568592650101
  0
LINE
  5
28A6B
  8
LAYER_1
 10
234.6451991183994892
 20
20.273305707399679
 30
0.0
 11
234.9781091183996011
 21
18.8729057073996884
 31
0.0
  0
LINE
  5
28A6C
  8
LAYER_1
 10
234.9781091183996011
 20
18.8729057073996884
 30
0.0
 11
233.3841191183998092
 21
18.8729057073996884
 31
0.0
  0
LINE
  5
28A6D
  8
LAYER_1
 10
233.3841191183998092
 20
18.8729057073996884
 30
0.0
 11
233.0029691184001024
 21
20.3517857073998094
 31
0.0
  0
ARC
  5
28A6E
  8
LAYER_1
 10
232.240692344163989
 20
20.2428944814478484
 30
0.0
 40
0.7700150515601198
 50
8.1297004547847145
 51
38.7257443803312214
  0
ARC
  5
28A6F
  8
LAYER_1
 10
232.5408898961414934
 20
20.3797096644167901
 30
0.0
 40
0.4574653460994325
 50
48.9327628569713298
 51
92.1905602036560907
  0
LINE
  5
28A70
  8
LAYER_1
 10
232.5234041183994975
 20
20.8368407073996806
 30
0.0
 11
232.3983491184000059
 21
20.8368407073996806
 31
0.0
  0
LINE
  5
28A71
  8
LAYER_1
 10
232.3983491184000059
 20
20.8368407073996806
 30
0.0
 11
231.9021791183996868
 21
18.8729057073996884
 31
0.0
  0
LINE
  5
28A72
  8
LAYER_1
 10
231.9021791183996868
 20
18.8729057073996884
 30
0.0
 11
230.4825191184000914
 21
18.8729057073996884
 31
0.0
  0
LINE
  5
28A73
  8
LAYER_1
 10
232.6290191183998957
 20
21.7484957073997904
 30
0.0
 11
233.2219391184000017
 21
21.7484957073997904
 31
0.0
  0
ARC
  5
28A74
  8
LAYER_1
 10
233.0041370613371896
 20
24.1995902298399308
 30
0.0
 40
2.4607523430846978
 50
275.0779145456456263
 51
284.2927593607810195
  0
ARC
  5
28A75
  8
LAYER_1
 10
233.5015123361258134
 20
22.3158198187949495
 30
0.0
 40
0.5127793700478258
 50
282.4017088068442831
 51
317.2691553026585893
  0
ARC
  5
28A76
  8
LAYER_1
 10
233.4378285593936084
 20
22.40455384873
 30
0.0
 40
0.6201583485358368
 50
315.2392622451386046
 51
345.5021097717356042
  0
ARC
  5
28A77
  8
LAYER_1
 10
233.6499113591700052
 20
22.3814251022285404
 30
0.0
 40
0.4101893517597064
 50
341.2096735858092984
 51
33.9824170259752165
  0
ARC
  5
28A78
  8
LAYER_1
 10
233.7539705549145026
 20
22.3777003325808614
 30
0.0
 40
0.331688968860616
 50
44.6240111567865299
 51
75.8324610552365499
  0
ARC
  5
28A79
  8
LAYER_1
 10
233.5342641522551901
 20
21.5365827416834392
 30
0.0
 40
1.2010195000606589
 50
75.4911943509529948
 51
91.7983342263070483
  0
LINE
  5
28A7A
  8
LAYER_1
 10
233.4965741183997068
 20
22.7370107073998007
 30
0.0
 11
232.8785441184001002
 21
22.7370107073998007
 31
0.0
  0
LINE
  5
28A7B
  8
LAYER_1
 10
232.8785441184001002
 20
22.7370107073998007
 30
0.0
 11
232.6290191183998957
 21
21.7484957073997904
 31
0.0
  0
LINE
  5
28A7C
  8
LAYER_1
 10
236.3837741183999128
 20
23.7125657073997793
 30
0.0
 11
237.7972691183996119
 21
23.7125657073997793
 31
0.0
  0
LINE
  5
28A7D
  8
LAYER_1
 10
237.7972691183996119
 20
23.7125657073997793
 30
0.0
 11
236.5739891183999077
 21
18.8729057073996884
 31
0.0
  0
LINE
  5
28A7E
  8
LAYER_1
 10
236.5739891183999077
 20
18.8729057073996884
 30
0.0
 11
235.1602691183998957
 21
18.8729057073996884
 31
0.0
  0
LINE
  5
28A7F
  8
LAYER_1
 10
235.1602691183998957
 20
18.8729057073996884
 30
0.0
 11
236.3837741183999128
 21
23.7125657073997793
 31
0.0
  0
LINE
  5
28A80
  8
LAYER_1
 10
238.50898911839991
 20
23.7125657073997793
 30
0.0
 11
240.6057641183998044
 21
23.7125657073997793
 31
0.0
  0
ARC
  5
28A81
  8
LAYER_1
 10
240.652737951487012
 20
20.9108985716758191
 30
0.0
 40
2.8020608987655211
 50
78.6033737127260252
 51
90.9605531637776892
  0
ARC
  5
28A82
  8
LAYER_1
 10
240.9399584195764987
 20
22.3125676967840896
 30
0.0
 40
1.3712817681488589
 50
63.0020256225066078
 51
78.7950729478796035
  0
ARC
  5
28A83
  8
LAYER_1
 10
241.0285869810363124
 20
22.5105608791078495
 30
0.0
 40
1.1546831897505589
 50
26.3079137632602702
 51
62.4606229747092527
  0
ARC
  5
28A84
  8
LAYER_1
 10
240.5411209167313018
 20
22.2915694513178018
 30
0.0
 40
1.6888312631082061
 50
358.4879419851997113
 51
25.6384280704623784
  0
ARC
  5
28A85
  8
LAYER_1
 10
238.4363956488749068
 20
22.2752148814932802
 30
0.0
 40
3.7930733671143928
 50
345.2483551151722736
 51
359.5738860385365001
  0
ARC
  5
28A86
  8
LAYER_1
 10
237.8275925654905905
 20
22.2890125041946412
 30
0.0
 40
4.3876107241434497
 50
330.1632220771692232
 51
347.0987649110164739
  0
ARC
  5
28A87
  8
LAYER_1
 10
239.1778977365634944
 20
21.6651080595214509
 30
0.0
 40
2.9088158070477581
 50
308.5314921816865876
 51
327.5895969958036744
  0
ARC
  5
28A88
  8
LAYER_1
 10
239.6670171509177862
 20
21.0197965077317583
 30
0.0
 40
2.0994056318545931
 50
286.3242758456004822
 51
309.0601887236048242
  0
ARC
  5
28A89
  8
LAYER_1
 10
239.3028142399849116
 20
22.3613161559254188
 30
0.0
 40
3.4893200980864618
 50
271.3083192054755273
 51
285.8719752346560199
  0
LINE
  5
28A8A
  8
LAYER_1
 10
239.3824841183997023
 20
18.8729057073996884
 30
0.0
 11
237.2857091183996943
 21
18.8729057073996884
 31
0.0
  0
LINE
  5
28A8B
  8
LAYER_1
 10
237.2857091183996943
 20
18.8729057073996884
 30
0.0
 11
238.50898911839991
 21
23.7125657073997793
 31
0.0
  0
LINE
  5
28A8C
  8
LAYER_1
 10
239.6452841184000988
 20
22.6156457073998283
 30
0.0
 11
238.9764941183995006
 21
19.9697807073996394
 31
0.0
  0
LINE
  5
28A8D
  8
LAYER_1
 10
238.9764941183995006
 20
19.9697807073996394
 30
0.0
 11
239.3208791183998017
 21
19.9697807073996394
 31
0.0
  0
ARC
  5
28A8E
  8
LAYER_1
 10
239.4028260063514892
 20
21.5622818394499909
 30
0.0
 40
1.5946081487395529
 50
267.0542732342340173
 51
291.0189238218827086
  0
ARC
  5
28A8F
  8
LAYER_1
 10
239.524364499068696
 20
20.9338659411133783
 30
0.0
 40
0.9708882712832799
 50
297.6400244211740755
 51
329.2196595062981146
  0
ARC
  5
28A90
  8
LAYER_1
 10
238.7077880921872008
 20
21.4538056042871013
 30
0.0
 40
1.93873040218361
 50
328.3679858862033143
 51
341.2531074096870043
  0
ARC
  5
28A91
  8
LAYER_1
 10
235.708357182337096
 20
22.5138398554614589
 30
0.0
 40
5.1198714078097929
 50
340.8075339832130908
 51
346.0290607212377267
  0
ARC
  5
28A92
  8
LAYER_1
 10
237.8292977737123124
 20
22.0719756810576193
 30
0.0
 40
2.9561655640939879
 50
344.4150221194735764
 51
357.011912375995621
  0
ARC
  5
28A93
  8
LAYER_1
 10
239.941847103025907
 20
21.9812106729014403
 30
0.0
 40
0.841982461860425
 50
355.6860656230011273
 51
24.60553152870391
  0
ARC
  5
28A94
  8
LAYER_1
 10
240.2390827667736914
 20
22.0379111012160109
 30
0.0
 40
0.5528644265706397
 50
32.1101833226581732
 51
82.9332622479387851
  0
ARC
  5
28A95
  8
LAYER_1
 10
240.0119170715462928
 20
21.1067700450954199
 30
0.0
 40
1.5089589918127491
 50
78.7190752547131325
 51
90.6021439399230957
  0
LINE
  5
28A96
  8
LAYER_1
 10
239.9960591184000123
 20
22.6156457073998283
 30
0.0
 11
239.6452841184000988
 21
22.6156457073998283
 31
0.0
  0
LINE
  5
28A97
  8
LAYER_1
 10
244.648474118399605
 20
20.6264657073997988
 30
0.0
 11
244.9030391183997892
 21
21.6338357073996086
 31
0.0
  0
LINE
  5
28A98
  8
LAYER_1
 10
244.9030391183997892
 20
21.6338357073996086
 30
0.0
 11
247.0827491184001019
 21
21.6338357073996086
 31
0.0
  0
LINE
  5
28A99
  8
LAYER_1
 10
247.0827491184001019
 20
21.6338357073996086
 30
0.0
 11
246.5602991183997119
 21
19.5680657073996684
 31
0.0
  0
ARC
  5
28A9A
  8
LAYER_1
 10
243.2342874722899921
 20
24.7970482356903084
 30
0.0
 40
6.1971454518371596
 50
289.4458878751157727
 51
302.4593151833418005
  0
ARC
  5
28A9B
  8
LAYER_1
 10
244.1845046174223057
 20
22.6498506990517612
 30
0.0
 40
3.860342899066195
 50
268.9543052361939885
 51
286.7558603060326163
  0
ARC
  5
28A9C
  8
LAYER_1
 10
244.0505812062152984
 20
21.530086538566561
 30
0.0
 40
2.7406709341861419
 50
248.9158125929517098
 51
271.3270674414453083
  0
ARC
  5
28A9D
  8
LAYER_1
 10
243.6030138135243988
 20
20.1898436638797705
 30
0.0
 40
1.3307116479973771
 50
236.2206898820581955
 51
246.1361134443289984
  0
ARC
  5
28A9E
  8
LAYER_1
 10
243.6297435171773884
 20
20.2113704873021511
 30
0.0
 40
1.363504538265123
 50
190.6768014419727137
 51
235.7900331205489977
  0
ARC
  5
28A9F
  8
LAYER_1
 10
244.7406081444607082
 20
20.4963229073184294
 30
0.0
 40
2.5090282592793569
 50
168.8164503810168924
 51
192.3717147671212047
  0
ARC
  5
28AA0
  8
LAYER_1
 10
246.3361980425098068
 20
20.2833792338968486
 30
0.0
 40
4.1168488754369728
 50
165.8044784944451919
 51
170.2162460051569042
  0
ARC
  5
28AA1
  8
LAYER_1
 10
246.0754214881594919
 20
20.3724780559673597
 30
0.0
 40
3.8422508665244308
 50
147.3720260493205103
 51
166.1389199531311931
  0
ARC
  5
28AA2
  8
LAYER_1
 10
245.6836998972609933
 20
20.5828466659049703
 30
0.0
 40
3.399090619228458
 50
142.0941684348692888
 51
146.7982469045911103
  0
ARC
  5
28AA3
  8
LAYER_1
 10
245.3568023399463982
 20
20.8449068321081299
 30
0.0
 40
2.9801665841958811
 50
114.3016217875122038
 51
142.2083025589388967
  0
ARC
  5
28AA4
  8
LAYER_1
 10
245.2445908328544988
 20
20.9617975892435311
 30
0.0
 40
2.827972521464893
 50
91.1497867990332793
 51
113.2041842212337031
  0
ARC
  5
28AA5
  8
LAYER_1
 10
245.4236925690267128
 20
19.3950962789003682
 30
0.0
 40
4.4004293222616644
 50
89.8072760982073675
 51
93.072336323728905
  0
ARC
  5
28AA6
  8
LAYER_1
 10
245.5222343501388877
 20
19.5006857032535486
 30
0.0
 40
4.2956313093945244
 50
80.8406804002742092
 51
91.1170106214636633
  0
ARC
  5
28AA7
  8
LAYER_1
 10
245.9850159112237122
 20
22.3093256665721
 30
0.0
 40
1.4491702636072981
 50
67.7227908608112728
 51
81.2281772025237245
  0
ARC
  5
28AA8
  8
LAYER_1
 10
246.1305087858382876
 20
22.6808817190223415
 30
0.0
 40
1.0502107343714751
 50
29.6019412194257612
 51
67.383496364199317
  0
ARC
  5
28AA9
  8
LAYER_1
 10
245.8684588236386901
 20
22.5626111560545404
 30
0.0
 40
1.3367446418150519
 50
12.0284717446244702
 51
28.4612395169355317
  0
ARC
  5
28AAA
  8
LAYER_1
 10
245.1438587904488884
 20
22.4116060512217317
 30
0.0
 40
2.0769072424682391
 50
0.3851088717367656
 51
11.9370111444533595
  0
LINE
  5
28AAB
  8
LAYER_1
 10
247.2207191183998987
 20
22.4255657073995209
 30
0.0
 11
245.791654118399606
 21
22.1696057073995583
 31
0.0
  0
ARC
  5
28AAC
  8
LAYER_1
 10
245.2011851019204016
 20
22.1619390210208707
 30
0.0
 40
0.5905187867476483
 50
0.7438901580799281
 51
45.9041293427053887
  0
ARC
  5
28AAD
  8
LAYER_1
 10
245.255430035770388
 20
22.1667589528967497
 30
0.0
 40
0.5504628943771991
 50
49.6125561074091195
 51
75.1740881865072623
  0
ARC
  5
28AAE
  8
LAYER_1
 10
245.1487179162010932
 20
21.7511174461499408
 30
0.0
 40
0.9795777952609933
 50
75.3610322459193753
 51
90.7068026431535088
  0
ARC
  5
28AAF
  8
LAYER_1
 10
245.1384638226417962
 20
21.5576700101620702
 30
0.0
 40
1.172952124329065
 50
90.089376515172404
 51
134.868021261145401
  0
ARC
  5
28AB0
  8
LAYER_1
 10
245.3533607340299056
 20
21.3102889486444305
 30
0.0
 40
1.5000485881633789
 50
134.0194005096930141
 51
149.6127741089811138
  0
ARC
  5
28AB1
  8
LAYER_1
 10
246.3863683031414951
 20
20.7225005088732885
 30
0.0
 40
2.6885206770994161
 50
149.9430192559258899
 51
167.4256009886480001
  0
ARC
  5
28AB2
  8
LAYER_1
 10
246.5503933283249012
 20
20.5425916753529982
 30
0.0
 40
2.8911648733778028
 50
164.6523584883154001
 51
177.1184240152406915
  0
ARC
  5
28AB3
  8
LAYER_1
 10
244.6773989264789861
 20
20.6181157262824115
 30
0.0
 40
1.016914512422336
 50
176.063051651654888
 51
205.1737799455270874
  0
ARC
  5
28AB4
  8
LAYER_1
 10
244.3105838665427996
 20
20.5036553677945008
 30
0.0
 40
0.6384089366191932
 50
209.8855726606747112
 51
256.4482021359447117
  0
ARC
  5
28AB5
  8
LAYER_1
 10
244.436249748401309
 20
20.961044496679019
 30
0.0
 40
1.112611210028374
 50
255.6762564748713089
 51
270.6537320487665284
  0
ARC
  5
28AB6
  8
LAYER_1
 10
244.4446215167477874
 20
21.4309252967909813
 30
0.0
 40
1.582425493277454
 50
270.1565110902417928
 51
287.4380551532947266
  0
ARC
  5
28AB7
  8
LAYER_1
 10
243.854411775574988
 20
23.0402912783532194
 30
0.0
 40
3.2956888445078669
 50
288.8428852950617056
 51
299.4190851209161224
  0
LINE
  5
28AB8
  8
LAYER_1
 10
245.4732341184000006
 20
20.1695807073997386
 30
0.0
 11
245.5888841183997044
 21
20.6264657073997988
 31
0.0
  0
LINE
  5
28AB9
  8
LAYER_1
 10
245.5888841183997044
 20
20.6264657073997988
 30
0.0
 11
244.648474118399605
 21
20.6264657073997988
 31
0.0
  0
LINE
  5
28ABA
  8
LAYER_1
 10
248.1237341183997955
 20
23.7125657073997793
 30
0.0
 11
251.9031941183995116
 21
23.7125657073997793
 31
0.0
  0
LINE
  5
28ABB
  8
LAYER_1
 10
251.9031941183995116
 20
23.7125657073997793
 30
0.0
 11
251.6421491183996864
 21
22.6795907073997114
 31
0.0
  0
LINE
  5
28ABC
  8
LAYER_1
 10
251.6421491183996864
 20
22.6795907073997114
 30
0.0
 11
249.2759141183998111
 21
22.6795907073997114
 31
0.0
  0
LINE
  5
28ABD
  8
LAYER_1
 10
249.2759141183998111
 20
22.6795907073997114
 30
0.0
 11
249.0824591183996972
 21
21.9147707073998284
 31
0.0
  0
LINE
  5
28ABE
  8
LAYER_1
 10
249.0824591183996972
 20
21.9147707073998284
 30
0.0
 11
251.2806191184000966
 21
21.9147707073998284
 31
0.0
  0
LINE
  5
28ABF
  8
LAYER_1
 10
251.2806191184000966
 20
21.9147707073998284
 30
0.0
 11
251.0306891184000904
 21
20.9259857073998283
 31
0.0
  0
LINE
  5
28AC0
  8
LAYER_1
 10
251.0306891184000904
 20
20.9259857073998283
 30
0.0
 11
248.8330241183994929
 21
20.9259857073998283
 31
0.0
  0
LINE
  5
28AC1
  8
LAYER_1
 10
248.8330241183994929
 20
20.9259857073998283
 30
0.0
 11
248.5910141183996132
 21
19.9697807073996394
 31
0.0
  0
LINE
  5
28AC2
  8
LAYER_1
 10
248.5910141183996132
 20
19.9697807073996394
 30
0.0
 11
251.0254241183999113
 21
19.9697807073996394
 31
0.0
  0
LINE
  5
28AC3
  8
LAYER_1
 10
251.0254241183999113
 20
19.9697807073996394
 30
0.0
 11
250.7482241183998894
 21
18.8729057073996884
 31
0.0
  0
LINE
  5
28AC4
  8
LAYER_1
 10
250.7482241183998894
 20
18.8729057073996884
 30
0.0
 11
246.9002741183996079
 21
18.8729057073996884
 31
0.0
  0
LINE
  5
28AC5
  8
LAYER_1
 10
246.9002741183996079
 20
18.8729057073996884
 30
0.0
 11
248.1237341183997955
 21
23.7125657073997793
 31
0.0
  0
ARC
  5
28AC6
  8
LAYER_1
 10
257.3021493891994851
 20
20.3439976382320715
 30
0.0
 40
3.9858377333198041
 50
147.7525971632780113
 51
166.2771445676542044
  0
ARC
  5
28AC7
  8
LAYER_1
 10
256.4652008910741756
 20
20.8212871399836992
 30
0.0
 40
3.0236210073721939
 50
130.0690664146655138
 51
146.9395040129861911
  0
ARC
  5
28AC8
  8
LAYER_1
 10
256.3465250650497183
 20
20.9400025161841796
 30
0.0
 40
2.8564152225531552
 50
88.5481201800074302
 51
129.7802089671673968
  0
ARC
  5
28AC9
  8
LAYER_1
 10
256.4723954571961144
 20
21.1893263047936991
 30
0.0
 40
2.6067233982652098
 50
68.0444921811749737
 51
91.1759320652749352
  0
ARC
  5
28ACA
  8
LAYER_1
 10
256.877040762879119
 20
22.3346635154262891
 30
0.0
 40
1.394165998988335
 50
37.1528396799173635
 51
65.8688005585868268
  0
ARC
  5
28ACB
  8
LAYER_1
 10
256.9317188102435239
 20
22.3947011446527107
 30
0.0
 40
1.3144104340012039
 50
34.8928281860840315
 51
36.5064144919185125
  0
ARC
  5
28ACC
  8
LAYER_1
 10
256.7469362318290109
 20
22.2843550597655984
 30
0.0
 40
1.529171671139063
 50
4.721339261138211
 51
34.3234785295097211
  0
ARC
  5
28ACD
  8
LAYER_1
 10
255.4692017854488881
 20
22.1450042239542384
 30
0.0
 40
2.8142423131008432
 50
345.0625063153800056
 51
5.4076255603743011
  0
ARC
  5
28ACE
  8
LAYER_1
 10
253.9666975401042919
 20
22.3955957025356795
 30
0.0
 40
4.3329996056504019
 50
345.7505065124349812
 51
346.982463476560099
  0
ARC
  5
28ACF
  8
LAYER_1
 10
254.0224498640168065
 20
22.3235750335530589
 30
0.0
 40
4.2616041275512364
 50
328.4923948782800949
 51
346.5045268133275158
  0
ARC
  5
28AD0
  8
LAYER_1
 10
255.1337922677753909
 20
21.7354166946354184
 30
0.0
 40
3.0077745695581628
 50
323.2952654849420924
 51
326.9805880008955228
  0
ARC
  5
28AD1
  8
LAYER_1
 10
255.2077630052322093
 20
21.6712886359046593
 30
0.0
 40
2.9101504083620742
 50
301.5947601662142006
 51
323.437050097990209
  0
ARC
  5
28AD2
  8
LAYER_1
 10
255.2441020244158096
 20
21.6305448126645601
 30
0.0
 40
2.8564236955994651
 50
297.2942359294659127
 51
301.4020641809069048
  0
ARC
  5
28AD3
  8
LAYER_1
 10
255.3210130713434864
 20
21.5129359748265685
 30
0.0
 40
2.7166789441640851
 50
274.4903292873161149
 51
296.9901681630219059
  0
ARC
  5
28AD4
  8
LAYER_1
 10
255.2112315428194904
 20
22.396784106907571
 30
0.0
 40
3.606633618703353
 50
269.9800242771020748
 51
275.1297209886756718
  0
ARC
  5
28AD5
  8
LAYER_1
 10
255.1445344226052043
 20
21.5695774013440307
 30
0.0
 40
2.7801969535979869
 50
248.9055603910290984
 51
271.3487406626716734
  0
ARC
  5
28AD6
  8
LAYER_1
 10
254.7902630431360933
 20
20.4059617953390884
 30
0.0
 40
1.5695361395522409
 50
239.6964235952420097
 51
245.6818838211925993
  0
ARC
  5
28AD7
  8
LAYER_1
 10
254.6574141304199088
 20
20.156725551951709
 30
0.0
 40
1.287368955726123
 50
206.8460866261441993
 51
239.2040453520845915
  0
ARC
  5
28AD8
  8
LAYER_1
 10
255.0738767244328926
 20
20.3830298944949284
 30
0.0
 40
1.761198783842211
 50
196.7224245131972964
 51
207.2963811448973956
  0
ARC
  5
28AD9
  8
LAYER_1
 10
255.4496334281128895
 20
20.4566646482067114
 30
0.0
 40
2.1425819481998341
 50
170.161916933559894
 51
195.7169537804971924
  0
ARC
  5
28ADA
  8
LAYER_1
 10
257.5574237065766852
 20
20.2378618329309496
 30
0.0
 40
4.2592158031455458
 50
165.7047646944490111
 51
172.1069549229071072
  0
ARC
  5
28ADB
  8
LAYER_1
 10
257.4390040040130998
 20
20.5628807002130394
 30
0.0
 40
2.695081430532988
 50
164.5735447702016927
 51
177.6191137185705884
  0
ARC
  5
28ADC
  8
LAYER_1
 10
255.6891497713737067
 20
20.6197676543113992
 30
0.0
 40
0.9445076402841619
 50
176.657259130473193
 51
204.6174517497206011
  0
ARC
  5
28ADD
  8
LAYER_1
 10
255.3479687436922916
 20
20.5045139458642502
 30
0.0
 40
0.5875149858623616
 50
208.2617181483086881
 51
257.2898344849895125
  0
ARC
  5
28ADE
  8
LAYER_1
 10
255.4385460046364926
 20
20.8716493070302711
 30
0.0
 40
0.965612389399893
 50
256.8400107177525911
 51
270.4021908845643907
  0
ARC
  5
28ADF
  8
LAYER_1
 10
255.4450061019529983
 20
21.0311468137787685
 30
0.0
 40
1.125086151324209
 50
270.0161952046391889
 51
313.854517713699579
  0
ARC
  5
28AE0
  8
LAYER_1
 10
255.2812941684387056
 20
21.1626047567721685
 30
0.0
 40
1.3335779702759001
 50
315.0135465053115809
 51
331.0666571105011826
  0
ARC
  5
28AE1
  8
LAYER_1
 10
253.7088934081315017
 20
22.0100754423900113
 30
0.0
 40
3.1197739376619791
 50
331.4160143473537232
 51
347.7094341875402961
  0
ARC
  5
28AE2
  8
LAYER_1
 10
254.4594485136636877
 20
21.9792913923739412
 30
0.0
 40
2.3833992721033428
 50
344.5901647894199868
 51
358.2366466253092199
  0
ARC
  5
28AE3
  8
LAYER_1
 10
255.9317178496214922
 20
21.9469095400886296
 30
0.0
 40
0.9109225736327212
 50
357.4228767549529948
 51
25.9275214688644695
  0
ARC
  5
28AE4
  8
LAYER_1
 10
256.2305314940455219
 20
22.0514900508186606
 30
0.0
 40
0.597580723122688
 50
29.4386399138338817
 51
77.7618383453054776
  0
ARC
  5
28AE5
  8
LAYER_1
 10
256.1357490043146754
 20
21.6670584578052114
 30
0.0
 40
0.9934301130975295
 50
77.1194225658217647
 51
90.388723851605306
  0
ARC
  5
28AE6
  8
LAYER_1
 10
256.1332186864768232
 20
21.5826605980962007
 30
0.0
 40
1.0778133298971919
 50
90.2237781728035344
 51
135.350689889891413
  0
ARC
  5
28AE7
  8
LAYER_1
 10
256.341828129858925
 20
21.3424182093393391
 30
0.0
 40
1.395268448851593
 50
134.3523626774768047
 51
150.3132525896095899
  0
ARC
  5
28AE8
  8
LAYER_1
 10
257.5382017665857006
 20
20.6787873633812183
 30
0.0
 40
2.7633279261282531
 50
150.6447260190493864
 51
167.4385154248390108
  0
LINE
  5
28AE9
  8
LAYER_1
 10
259.2223091183997212
 20
23.7125657073997793
 30
0.0
 11
260.5392791183995769
 21
23.7125657073997793
 31
0.0
  0
LINE
  5
28AEA
  8
LAYER_1
 10
260.5392791183995769
 20
23.7125657073997793
 30
0.0
 11
261.5784191183998928
 21
21.0380807073997786
 31
0.0
  0
LINE
  5
28AEB
  8
LAYER_1
 10
261.5784191183998928
 20
21.0380807073997786
 30
0.0
 11
262.2548141183997927
 21
23.7125657073997793
 31
0.0
  0
LINE
  5
28AEC
  8
LAYER_1
 10
262.2548141183997927
 20
23.7125657073997793
 30
0.0
 11
263.5874441183996737
 21
23.7125657073997793
 31
0.0
  0
LINE
  5
28AED
  8
LAYER_1
 10
263.5874441183996737
 20
23.7125657073997793
 30
0.0
 11
262.3639841183996282
 21
18.8729057073996884
 31
0.0
  0
LINE
  5
28AEE
  8
LAYER_1
 10
262.3639841183996282
 20
18.8729057073996884
 30
0.0
 11
261.0313541183996904
 21
18.8729057073996884
 31
0.0
  0
LINE
  5
28AEF
  8
LAYER_1
 10
261.0313541183996904
 20
18.8729057073996884
 30
0.0
 11
259.9972991183996101
 21
21.5330807073996695
 31
0.0
  0
LINE
  5
28AF0
  8
LAYER_1
 10
259.9972991183996101
 20
21.5330807073996695
 30
0.0
 11
259.3254041184001153
 21
18.8729057073996884
 31
0.0
  0
LINE
  5
28AF1
  8
LAYER_1
 10
259.3254041184001153
 20
18.8729057073996884
 30
0.0
 11
257.9989841183997896
 21
18.8729057073996884
 31
0.0
  0
LINE
  5
28AF2
  8
LAYER_1
 10
257.9989841183997896
 20
18.8729057073996884
 30
0.0
 11
259.2223091183997212
 21
23.7125657073997793
 31
0.0
  0
LINE
  5
28AF3
  8
LAYER_1
 10
264.2020091183995874
 20
23.7125657073997793
 30
0.0
 11
267.9819191183997873
 21
23.7125657073997793
 31
0.0
  0
LINE
  5
28AF4
  8
LAYER_1
 10
267.9819191183997873
 20
23.7125657073997793
 30
0.0
 11
267.7206941183995923
 21
22.6795907073997114
 31
0.0
  0
LINE
  5
28AF5
  8
LAYER_1
 10
267.7206941183995923
 20
22.6795907073997114
 30
0.0
 11
265.3547741183999165
 21
22.6795907073997114
 31
0.0
  0
LINE
  5
28AF6
  8
LAYER_1
 10
265.3547741183999165
 20
22.6795907073997114
 30
0.0
 11
265.1611841183996034
 21
21.9147707073998284
 31
0.0
  0
LINE
  5
28AF7
  8
LAYER_1
 10
265.1611841183996034
 20
21.9147707073998284
 30
0.0
 11
267.3590291184002012
 21
21.9147707073998284
 31
0.0
  0
LINE
  5
28AF8
  8
LAYER_1
 10
267.3590291184002012
 20
21.9147707073998284
 30
0.0
 11
267.1095491183996842
 21
20.9259857073998283
 31
0.0
  0
LINE
  5
28AF9
  8
LAYER_1
 10
267.1095491183996842
 20
20.9259857073998283
 30
0.0
 11
264.9111191183998244
 21
20.9259857073998283
 31
0.0
  0
LINE
  5
28AFA
  8
LAYER_1
 10
264.9111191183998244
 20
20.9259857073998283
 30
0.0
 11
264.6695591183998886
 21
19.9697807073996394
 31
0.0
  0
LINE
  5
28AFB
  8
LAYER_1
 10
264.6695591183998886
 20
19.9697807073996394
 30
0.0
 11
267.1040141183995047
 21
19.9697807073996394
 31
0.0
  0
LINE
  5
28AFC
  8
LAYER_1
 10
267.1040141183995047
 20
19.9697807073996394
 30
0.0
 11
266.827264118399512
 21
18.8729057073996884
 31
0.0
  0
LINE
  5
28AFD
  8
LAYER_1
 10
266.827264118399512
 20
18.8729057073996884
 30
0.0
 11
262.9789541184001109
 21
18.8729057073996884
 31
0.0
  0
LINE
  5
28AFE
  8
LAYER_1
 10
262.9789541184001109
 20
18.8729057073996884
 30
0.0
 11
264.2020091183995874
 21
23.7125657073997793
 31
0.0
  0
LINE
  5
28AFF
  8
寸法
 62
     2
 10
31.91883748816565
 20
160.0131855930316078
 30
0.0
 11
31.91883748816565
 21
151.7027469316265922
 31
0.0
  0
LINE
  5
28B00
  8
寸法
 62
     2
 10
113.3188374881665936
 20
159.9844446268787976
 30
0.0
 11
113.3188374881665936
 21
151.7027469316265922
 31
0.0
  0
LINE
  5
28B01
  8
寸法
 62
     2
 10
32.7188374881656472
 20
151.7027469316265922
 30
0.0
 11
112.5188374881665965
 21
151.7027469316265922
 31
0.0
  0
LINE
  5
28B05
  8
寸法
 62
     2
 10
109.8188074881664988
 20
159.9844446268787976
 30
0.0
 11
109.8188074881664988
 21
156.084459626879692
 31
0.0
  0
LINE
  5
28B06
  8
寸法
 62
     2
 10
35.4188043423206409
 20
159.9844446268787976
 30
0.0
 11
35.4188043423206409
 21
156.084459626879692
 31
0.0
  0
LINE
  5
28B07
  8
寸法
 62
     2
 10
109.0188074881665017
 20
156.084459626879692
 30
0.0
 11
36.2188043423206381
 21
156.084459626879692
 31
0.0
  0
LINE
  5
28B0B
  8
寸法
 62
     2
 10
35.4188043423206409
 20
159.9844446268787976
 30
0.0
 11
35.4188043423206409
 21
156.084459626879692
 31
0.0
  0
LINE
  5
28B0C
  8
寸法
 62
     2
 10
31.91883748816565
 20
160.0131855930316078
 30
0.0
 11
31.91883748816565
 21
156.084459626879692
 31
0.0
  0
LINE
  5
28B0D
  8
寸法
 62
     2
 10
34.6188043423206366
 20
156.084459626879692
 30
0.0
 11
32.7188374881656472
 21
156.084459626879692
 31
0.0
  0
LINE
  5
28B11
  8
寸法
 62
     2
 10
29.9188374881656713
 20
169.5131355930317909
 30
0.0
 11
24.91883748817175
 21
169.5131355930317909
 31
0.0
  0
LINE
  5
28B12
  8
寸法
 62
     2
 10
29.9188374881656713
 20
162.0131855930316931
 30
0.0
 11
24.91883748817175
 21
162.0131855930316931
 31
0.0
  0
LINE
  5
28B13
  8
寸法
 62
     2
 10
24.91883748817175
 20
168.713135593031808
 30
0.0
 11
24.91883748817175
 21
162.8131855930317045
 31
0.0
  0
LINE
  5
28B17
  8
寸法
 62
     2
 10
113.3188374881665936
 20
159.9844446268787976
 30
0.0
 11
113.3188374881665936
 21
156.084459626879692
 31
0.0
  0
LINE
  5
28B18
  8
寸法
 62
     2
 10
109.8188074881664988
 20
159.9844446268787976
 30
0.0
 11
109.8188074881664988
 21
156.084459626879692
 31
0.0
  0
LINE
  5
28B19
  8
寸法
 62
     2
 10
112.5188374881665965
 20
156.084459626879692
 30
0.0
 11
110.618807488166496
 21
156.084459626879692
 31
0.0
  0
LINE
  5
28B27
  8
寸法
 62
     2
 10
49.2851498580700991
 20
108.0789465900679005
 30
0.0
 11
45.7621347283867692
 21
108.0789465900679005
 31
0.0
  0
LINE
  5
28B28
  8
寸法
 62
     2
 10
49.2851498580700991
 20
96.0789465900679147
 30
0.0
 11
45.7621347283867692
 21
96.0789465900679147
 31
0.0
  0
LINE
  5
28B29
  8
寸法
 62
     2
 10
45.7621347283867692
 20
107.6789465900678948
 30
0.0
 11
45.7621347283867692
 21
96.4789465900679346
 31
0.0
  0
LINE
  5
28B2D
  8
寸法
 62
     2
 10
49.2851498580700991
 20
96.0789465900679147
 30
0.0
 11
45.6783771147763389
 21
96.0789465900679147
 31
0.0
  0
LINE
  5
28B2E
  8
寸法
 62
     2
 10
49.2851498580700991
 20
95.8789465900679545
 30
0.0
 11
45.6783771147763389
 21
95.8789465900679545
 31
0.0
  0
LINE
  5
28B2F
  8
寸法
 62
     2
 10
45.6783771147763389
 20
96.4789465900679346
 30
0.0
 11
45.6783771147763389
 21
96.8789465900679261
 31
0.0
  0
LINE
  5
28B30
  8
寸法
 62
     2
 10
45.6783771147763389
 20
95.4789465900679488
 30
0.0
 11
45.6783771147763389
 21
95.0789465900679573
 31
0.0
  0
LINE
  5
28B34
  8
本体2
 10
211.7699942557678128
 20
162.4318604461822133
 30
0.0
 11
211.7811928291972094
 21
167.4318479053617921
 31
0.0
  0
LINE
  5
28B35
  8
本体2
 10
211.3708911449078016
 20
162.8327553287909097
 30
0.0
 11
211.380297946588513
 21
167.0327447945018093
 31
0.0
  0
LINE
  5
28B36
  8
本体2
 10
211.3708911449078016
 20
162.8327553287909097
 30
0.0
 11
209.7442285581880128
 21
162.8363985980132895
 31
0.0
  0
ARC
  5
28B37
  8
本体2
 10
209.7441389696006127
 20
162.7963986983398001
 30
0.0
 40
0.04
 50
89.871673693897506
 51
179.8716736939024088
  0
LINE
  5
28B38
  8
本体2
 10
211.7699942557678128
 20
162.4318604461822133
 30
0.0
 11
210.3699977671975034
 21
162.4349960467424125
 31
0.0
  0
LINE
  5
28B39
  8
本体2
 10
209.7041390699272085
 20
162.796488286927314
 30
0.0
 11
209.7033327726402945
 21
162.4364891898663075
 31
0.0
  0
ARC
  5
28B3A
  8
本体2
 10
210.036665269918899
 20
162.4357426183044026
 30
0.0
 40
0.3333333333332953
 50
179.8716736939024088
 51
359.8716736938974918
  0
LINE
  5
28B3B
  8
本体2
 10
211.7811928291972094
 20
167.4318479053617921
 30
0.0
 11
210.9585451617273861
 21
167.4336904060452014
 31
0.0
  0
LINE
  5
28B3C
  8
本体2
 10
211.380297946588513
 20
167.0327447945018093
 30
0.0
 11
210.686966352248902
 21
167.0342976633505998
 31
0.0
  0
ARC
  5
28B3D
  8
本体2
 10
210.6870559408363874
 20
167.0742975630240892
 30
0.0
 40
0.04
 50
179.8716736938974918
 51
269.8716736938974918
  0
LINE
  5
28B3E
  8
本体2
 10
210.6470560411628981
 20
167.0743871516114893
 30
0.0
 11
210.6471157668879073
 21
167.1010537513938061
 31
0.0
  0
ARC
  5
28B3F
  8
本体2
 10
210.3804497690649953
 20
167.1016510086433868
 30
0.0
 40
0.2666666666666666
 50
359.8716736938974918
 51
179.8716736938974918
  0
ARC
  5
28B40
  8
本体2
 10
210.3804497690649953
 20
167.1016510086433868
 30
0.0
 40
0.6666666666666665
 50
29.8716736938987708
 51
179.8716736938974918
  0
LINE
  5
28B41
  8
本体2
 10
210.1137837712421117
 20
167.1022482658929107
 30
0.0
 11
210.1128878853677122
 21
166.7022492691586137
 31
0.0
  0
LINE
  5
28B42
  8
本体2
 10
209.7137847745077011
 20
167.1031441517673102
 30
0.0
 11
209.7128888886333016
 21
166.7031451550328995
 31
0.0
  0
ARC
  5
28B43
  8
本体2
 10
209.9129705098723946
 20
166.7393637867965026
 30
0.0
 40
0.2033333333333535
 50
190.2605315093844922
 51
349.4828158784098946
  0
LINE
  5
28B44
  8
本体2
 10
211.7513749241796859
 20
134.118620815664201
 30
0.0
 11
211.7401763507504029
 21
129.1186333564845938
 31
0.0
  0
LINE
  5
28B45
  8
本体2
 10
211.3504800415709894
 20
133.7195177048041899
 30
0.0
 11
211.3410732398903917
 21
129.5195282390932903
 31
0.0
  0
LINE
  5
28B46
  8
本体2
 10
211.3504800415709894
 20
133.7195177048041899
 30
0.0
 11
209.7238174548512859
 21
133.7231609740265128
 31
0.0
  0
ARC
  5
28B47
  8
本体2
 10
209.7239070434387997
 20
133.7631608737000022
 30
0.0
 40
0.04
 50
179.8716736938926033
 51
269.8716736938974918
  0
LINE
  5
28B48
  8
本体2
 10
211.7513749241796859
 20
134.118620815664201
 30
0.0
 11
210.3513784356094902
 21
134.1217564162244003
 31
0.0
  0
LINE
  5
28B49
  8
本体2
 10
209.6839071437653104
 20
133.7632504622874023
 30
0.0
 11
209.6847134410523097
 21
134.1232495593482952
 31
0.0
  0
ARC
  5
28B4A
  8
本体2
 10
210.0180459383309142
 20
134.1225029877863903
 30
0.0
 40
0.3333333333332953
 50
359.8716736938974918
 51
179.8716736938926033
  0
LINE
  5
28B4B
  8
本体2
 10
211.7401763507504029
 20
129.1186333564845938
 30
0.0
 11
210.917528683280608
 21
129.1204758571680031
 31
0.0
  0
LINE
  5
28B4C
  8
本体2
 10
211.3410732398903917
 20
129.5195282390932903
 30
0.0
 11
210.6477416455508092
 21
129.5210811079421944
 31
0.0
  0
ARC
  5
28B4D
  8
本体2
 10
210.647652056963409
 20
129.481081208268705
 30
0.0
 40
0.04
 50
89.871673693897506
 51
179.8716736938974918
  0
LINE
  5
28B4E
  8
本体2
 10
210.6076521572900049
 20
129.4811707968561905
 30
0.0
 11
210.6075924315649956
 21
129.4545041970737884
 31
0.0
  0
ARC
  5
28B4F
  8
本体2
 10
210.3409264337421973
 20
129.4551014543233975
 30
0.0
 40
0.2666666666666666
 50
179.8716736938974918
 51
359.8716736938974918
  0
ARC
  5
28B50
  8
本体2
 10
210.3409264337421973
 20
129.4551014543233975
 30
0.0
 40
0.6666666666666665
 50
179.8716736938974918
 51
329.8716736938961276
  0
LINE
  5
28B51
  8
本体2
 10
210.0742604359193137
 20
129.4556987115730067
 30
0.0
 11
210.0751563217935995
 21
129.8556977083073889
 31
0.0
  0
LINE
  5
28B52
  8
本体2
 10
209.6742614391847894
 20
129.4565945974474062
 30
0.0
 11
209.6751573250591889
 21
129.8565935941817031
 31
0.0
  0
ARC
  5
28B53
  8
本体2
 10
209.8750747005545918
 20
129.8194790765437858
 30
0.0
 40
0.2033333333333535
 50
10.2605315093869205
 51
169.4828158784098946
  0
LINE
  5
28B54
  8
寸法
 62
     2
 10
207.4814501619082989
 20
168.2798668458459872
 30
0.0
 11
203.8058464059766095
 21
168.2798668458459872
 31
0.0
  0
LINE
  5
28B55
  8
寸法
 62
     2
 10
207.4366581245380985
 20
128.2809244328857972
 30
0.0
 11
203.8058464059766095
 21
128.2809244328857972
 31
0.0
  0
LINE
  5
28B56
  8
寸法
 62
     2
 10
203.8058464059766095
 20
167.8798668458460099
 30
0.0
 11
203.8058464059766095
 21
128.6809244328858028
 31
0.0
  0
LINE
  5
28B5A
  8
寸法
 62
     2
 10
207.3033251256269978
 20
128.2812230615105022
 30
0.0
 11
200.8761255656652054
 21
128.2812230615105022
 31
0.0
  0
LINE
  5
28B5B
  8
寸法
 62
     2
 10
207.3018296595656977
 20
127.6135209118721008
 30
0.0
 11
200.8761255656652054
 21
127.6135209118721008
 31
0.0
  0
LINE
  5
28B5C
  8
寸法
 62
     2
 10
200.8761255656652054
 20
128.6812230615105079
 30
0.0
 11
200.8761255656652054
 21
129.0812230615105136
 31
0.0
  0
LINE
  5
28B5D
  8
寸法
 62
     2
 10
200.8761255656652054
 20
127.2135209118720951
 30
0.0
 11
200.8761255656652054
 21
123.9635209118721946
 31
0.0
  0
LINE
  5
28B61
  8
寸法
 62
     2
 10
208.7484897343045986
 20
170.2820121866031968
 30
0.0
 11
208.7484897343045986
 21
174.5780922628385099
 31
0.0
  0
LINE
  5
28B62
  8
寸法
 62
     2
 10
213.7830817368325995
 20
170.2707361086754076
 30
0.0
 11
213.7830817368325995
 21
174.5780922628385099
 31
0.0
  0
LINE
  5
28B63
  8
寸法
 62
     2
 10
209.1484897343046043
 20
174.5780922628385099
 30
0.0
 11
213.3830817368325938
 21
174.5780922628385099
 31
0.0
  0
LINE
  5
28B67
  8
本体2
 10
211.7304099146780061
 20
121.7674534959406998
 30
0.0
 11
211.741608488107488
 21
126.767440955120307
 31
0.0
  0
LINE
  5
28B68
  8
本体2
 10
211.3313068038181086
 20
122.1683483785493962
 30
0.0
 11
211.3407136054987916
 21
126.3683378442602958
 31
0.0
  0
LINE
  5
28B69
  8
本体2
 10
211.3313068038181086
 20
122.1683483785493962
 30
0.0
 11
209.7046442170982914
 21
122.1719916477718044
 31
0.0
  0
ARC
  5
28B6A
  8
本体2
 10
209.7045546285108912
 20
122.1319917480983008
 30
0.0
 40
0.04
 50
89.871673693897506
 51
179.8716736939024088
  0
LINE
  5
28B6B
  8
本体2
 10
211.7304099146780061
 20
121.7674534959406998
 30
0.0
 11
210.3304134261078104
 21
121.7705890965009985
 31
0.0
  0
LINE
  5
28B6C
  8
本体2
 10
209.6645547288374871
 20
122.1320813366858005
 30
0.0
 11
209.6637484315504878
 21
121.7720822396248934
 31
0.0
  0
ARC
  5
28B6D
  8
本体2
 10
209.997080928829206
 20
121.7713356680629033
 30
0.0
 40
0.3333333333332953
 50
179.8716736939036025
 51
359.8716736938974918
  0
LINE
  5
28B6E
  8
本体2
 10
211.741608488107488
 20
126.767440955120307
 30
0.0
 11
210.9189608206376931
 21
126.7692834558037021
 31
0.0
  0
LINE
  5
28B6F
  8
本体2
 10
211.3407136054987916
 20
126.3683378442602958
 30
0.0
 11
210.647382011159209
 21
126.3698907131092
 31
0.0
  0
ARC
  5
28B70
  8
本体2
 10
210.6474715997466944
 20
126.4098906127826041
 30
0.0
 40
0.04
 50
179.8716736938974918
 51
269.8716736938974918
  0
LINE
  5
28B71
  8
本体2
 10
210.6074717000732051
 20
126.4099802013701037
 30
0.0
 11
210.6075314257981859
 21
126.4366468011524063
 31
0.0
  0
ARC
  5
28B72
  8
本体2
 10
210.3408654279753023
 20
126.4372440584019017
 30
0.0
 40
0.2666666666666666
 50
359.8716736938974918
 51
179.8716736938974918
  0
ARC
  5
28B73
  8
本体2
 10
210.3408654279753023
 20
126.4372440584019017
 30
0.0
 40
0.6666666666666665
 50
29.8716736938987708
 51
179.8716736938974918
  0
LINE
  5
28B74
  8
本体2
 10
210.0741994301523903
 20
126.4378413156514966
 30
0.0
 11
210.0733035442779908
 21
126.0378423189171002
 31
0.0
  0
LINE
  5
28B75
  8
本体2
 10
209.6742004334180081
 20
126.4387372015257966
 30
0.0
 11
209.6733045475436086
 21
126.0387382047914997
 31
0.0
  0
ARC
  5
28B76
  8
本体2
 10
209.8733861687827016
 20
126.0749568365550033
 30
0.0
 40
0.2033333333333535
 50
190.2605315093856859
 51
349.4828158784088146
  0
LINE
  5
28B77
  8
本体2
 10
211.7304099146780061
 20
56.0322227284213525
 30
0.0
 11
211.741608488107488
 21
51.0322352692417596
 31
0.0
  0
LINE
  5
28B78
  8
本体2
 10
211.3313068038181086
 20
55.631327845812649
 30
0.0
 11
211.3407136054987916
 21
51.4313383801017707
 31
0.0
  0
LINE
  5
28B79
  8
本体2
 10
211.3313068038181086
 20
55.631327845812649
 30
0.0
 11
209.7046442170982914
 21
55.6276845765902834
 31
0.0
  0
ARC
  5
28B7A
  8
本体2
 10
209.7045546285108912
 20
55.6676844762637089
 30
0.0
 40
0.04
 50
180.1283263060975912
 51
270.1283263061025082
  0
LINE
  5
28B7B
  8
本体2
 10
211.7304099146780061
 20
56.0322227284213525
 30
0.0
 11
210.3304134261078104
 21
56.0290871278610965
 31
0.0
  0
LINE
  5
28B7C
  8
本体2
 10
209.6645547288374871
 20
55.6675948876762803
 30
0.0
 11
209.6637484315504878
 21
56.0275939847371802
 31
0.0
  0
ARC
  5
28B7D
  8
本体2
 10
209.997080928829206
 20
56.0283405562991419
 30
0.0
 40
0.3333333333332954
 50
0.1283263061025115
 51
180.1283263060969944
  0
LINE
  5
28B7E
  8
本体2
 10
211.741608488107488
 20
51.0322352692417596
 30
0.0
 11
210.9189608206376931
 21
51.0303927685583218
 31
0.0
  0
LINE
  5
28B7F
  8
本体2
 10
211.3407136054987916
 20
51.4313383801017707
 30
0.0
 11
210.647382011159209
 21
51.4297855112528808
 31
0.0
  0
ARC
  5
28B80
  8
本体2
 10
210.6474715997466944
 20
51.3897856115794411
 30
0.0
 40
0.04
 50
90.1283263061025082
 51
180.1283263061025082
  0
LINE
  5
28B81
  8
本体2
 10
210.6074717000732051
 20
51.3896960229920126
 30
0.0
 11
210.6075314257981859
 21
51.3630294232096887
 31
0.0
  0
ARC
  5
28B82
  8
本体2
 10
210.3408654279753023
 20
51.3624321659601506
 30
0.0
 40
0.2666666666666666
 50
180.1283263061025082
 51
0.1283263061025115
  0
ARC
  5
28B83
  8
本体2
 10
210.3408654279753023
 20
51.3624321659601506
 30
0.0
 40
0.6666666666666666
 50
180.1283263061025082
 51
330.1283263061006892
  0
LINE
  5
28B84
  8
本体2
 10
210.0741994301523903
 20
51.361834908710577
 30
0.0
 11
210.0733035442779908
 21
51.7618339054449521
 31
0.0
  0
LINE
  5
28B85
  8
本体2
 10
209.6742004334180081
 20
51.3609390228362201
 30
0.0
 11
209.6733045475436086
 21
51.7609380195706024
 31
0.0
  0
ARC
  5
28B86
  8
本体2
 10
209.8733861687827016
 20
51.7247193878070632
 30
0.0
 40
0.2033333333333536
 50
10.5171841215906596
 51
169.7394684906143141
  0
LINE
  5
28B93
  8
寸法
 62
     2
 10
207.3077862503452877
 20
127.6157593602841018
 30
0.0
 11
204.6996576958351
 21
127.6157593602841018
 31
0.0
  0
LINE
  5
28B94
  8
寸法
 62
     2
 10
207.3077862503452877
 20
110.2785056901957006
 30
0.0
 11
204.6996576958351
 21
110.2785056901957006
 31
0.0
  0
LINE
  5
28B95
  8
寸法
 62
     2
 10
204.6996576958351
 20
127.2157593602840961
 30
0.0
 11
204.6996576958351
 21
110.6785056901957063
 31
0.0
  0
LINE
  5
28B99
  8
寸法
 62
     2
 10
206.9663594377175002
 20
110.2785056901957006
 30
0.0
 11
204.6996576958352136
 21
110.2785056901957006
 31
0.0
  0
LINE
  5
28B9A
  8
寸法
 62
     2
 10
206.9663594377175002
 20
90.2785056901957148
 30
0.0
 11
204.6996576958352136
 21
90.2785056901957148
 31
0.0
  0
LINE
  5
28B9B
  8
寸法
 62
     2
 10
204.6996576958352136
 20
109.8785056901956949
 30
0.0
 11
204.6996576958352136
 21
90.6785056901957205
 31
0.0
  0
LINE
  5
28B9F
  8
寸法
 62
     2
 10
206.9663594377175002
 20
90.2785056901957148
 30
0.0
 11
204.6996576958356115
 21
90.2785056901957148
 31
0.0
  0
LINE
  5
28BA0
  8
寸法
 62
     2
 10
206.9730475797464067
 20
82.9505476721085557
 30
0.0
 11
204.6996576958356115
 21
82.9505476721085557
 31
0.0
  0
LINE
  5
28BA1
  8
寸法
 62
     2
 10
204.6996576958356115
 20
89.8785056901956949
 30
0.0
 11
204.6996576958356115
 21
83.3505476721085756
 31
0.0
  0
LINE
  5
28BA5
  8
寸法
 62
     2
 10
206.9730475797464067
 20
82.9505476721085557
 30
0.0
 11
204.6996576958360095
 21
82.9505476721085557
 31
0.0
  0
LINE
  5
28BA6
  8
寸法
 62
     2
 10
206.9730475797464067
 20
62.8526374385948827
 30
0.0
 11
204.6996576958360095
 21
62.8526374385948827
 31
0.0
  0
LINE
  5
28BA7
  8
寸法
 62
     2
 10
204.6996576958360095
 20
82.5505476721085643
 30
0.0
 11
204.6996576958360095
 21
63.2526374385948671
 31
0.0
  0
LINE
  5
28BAB
  8
寸法
 62
     2
 10
206.9730475797464067
 20
62.8526374385948827
 30
0.0
 11
204.6996576958364074
 21
62.8526374385948827
 31
0.0
  0
LINE
  5
28BAC
  8
寸法
 62
     2
 10
206.9730475797464067
 20
50.1863813862871879
 30
0.0
 11
204.6996576958364074
 21
50.1863813862871879
 31
0.0
  0
LINE
  5
28BAD
  8
寸法
 62
     2
 10
204.6996576958364074
 20
62.452637438594877
 30
0.0
 11
204.6996576958364074
 21
50.5863813862871865
 31
0.0
  0
LINE
  5
28BB1
  8
寸法
 62
     2
 10
51.2851498580700778
 20
37.0517309426685983
 30
0.0
 11
51.2851498580700778
 21
33.7608141834818412
 31
0.0
  0
LINE
  5
28BB2
  8
寸法
 62
     2
 10
50.5851498580700323
 20
37.0517309426685983
 30
0.0
 11
50.5851498580700323
 21
33.7608141834818412
 31
0.0
  0
LINE
  5
28BB3
  8
寸法
 62
     2
 10
51.6851498580700692
 20
33.7608141834818412
 30
0.0
 11
52.0851498580700678
 21
33.7608141834818412
 31
0.0
  0
LINE
  5
28BB4
  8
寸法
 62
     2
 10
50.1851498580700266
 20
33.7608141834818412
 30
0.0
 11
46.9351498580700195
 21
33.7608141834818412
 31
0.0
  0
LINE
  5
28BB8
  8
寸法
 62
     2
 10
51.2851498580700778
 20
37.0517309426685983
 30
0.0
 11
51.2851498580700778
 21
33.7608141834818412
 31
0.0
  0
LINE
  5
28BB9
  8
寸法
 62
     2
 10
95.2851498580700706
 20
37.0517309426685983
 30
0.0
 11
95.2851498580700706
 21
33.7608141834818412
 31
0.0
  0
LINE
  5
28BBA
  8
寸法
 62
     2
 10
51.6851498580700692
 20
33.7608141834818412
 30
0.0
 11
94.885149858070065
 21
33.7608141834818412
 31
0.0
  0
LINE
  5
28BBE
  8
寸法
 62
     2
 10
95.2851498580700706
 20
37.0517309426685983
 30
0.0
 11
95.2851498580700706
 21
33.7608141834818412
 31
0.0
  0
LINE
  5
28BBF
  8
寸法
 62
     2
 10
95.9851498580701161
 20
37.0517309426685983
 30
0.0
 11
95.9851498580701161
 21
33.7608141834818412
 31
0.0
  0
LINE
  5
28BC0
  8
寸法
 62
     2
 10
94.885149858070065
 20
33.7608141834818412
 30
0.0
 11
94.4851498580700593
 21
33.7608141834818412
 31
0.0
  0
LINE
  5
28BC1
  8
寸法
 62
     2
 10
96.385149858070136
 20
33.7608141834818412
 30
0.0
 11
99.6351498580701076
 21
33.7608141834818412
 31
0.0
  0
LINE
  5
28BC5
  8
寸法
 62
     2
 10
51.2851498580700778
 20
44.2379160339309507
 30
0.0
 11
51.2851498580700778
 21
41.6347234785705993
 31
0.0
  0
LINE
  5
28BC6
  8
寸法
 62
     2
 10
57.0851498580700891
 20
44.2379160339309507
 30
0.0
 11
57.0851498580700891
 21
41.6347234785705993
 31
0.0
  0
LINE
  5
28BC7
  8
寸法
 62
     2
 10
51.6851498580700692
 20
41.6347234785705993
 30
0.0
 11
56.6851498580700905
 21
41.6347234785705993
 31
0.0
  0
LINE
  5
28BCB
  8
寸法
 62
     2
 10
57.0851498580700891
 20
44.2379160339309507
 30
0.0
 11
57.0851498580700891
 21
41.6347234785705993
 31
0.0
  0
LINE
  5
28BCC
  8
寸法
 62
     2
 10
74.085149858070082
 20
44.2379160339309507
 30
0.0
 11
74.085149858070082
 21
41.6347234785705993
 31
0.0
  0
LINE
  5
28BCD
  8
寸法
 62
     2
 10
57.4851498580700877
 20
41.6347234785705993
 30
0.0
 11
73.6851498580700763
 21
41.6347234785705993
 31
0.0
  0
LINE
  5
28BD1
  8
寸法
 62
     2
 10
74.085149858070082
 20
44.2379160339309507
 30
0.0
 11
74.085149858070082
 21
41.5767779652176728
 31
0.0
  0
LINE
  5
28BD2
  8
寸法
 62
     2
 10
75.8851498580700934
 20
44.2379160339309507
 30
0.0
 11
75.8851498580700934
 21
41.5767779652176728
 31
0.0
  0
LINE
  5
28BD3
  8
寸法
 62
     2
 10
73.6851498580700763
 20
41.5767779652176728
 30
0.0
 11
73.2851498580700849
 21
41.5767779652176728
 31
0.0
  0
LINE
  5
28BD4
  8
寸法
 62
     2
 10
76.2851498580700991
 20
41.5767779652176728
 30
0.0
 11
76.6851498580700905
 21
41.5767779652176728
 31
0.0
  0
LINE
  5
28BD8
  8
寸法
 62
     2
 10
75.8851498580700934
 20
44.2379160339309507
 30
0.0
 11
75.8851498580700934
 21
41.6347234785705993
 31
0.0
  0
LINE
  5
28BD9
  8
寸法
 62
     2
 10
92.8851498580700934
 20
44.2379160339309507
 30
0.0
 11
92.8851498580700934
 21
41.6347234785705993
 31
0.0
  0
LINE
  5
28BDA
  8
寸法
 62
     2
 10
76.2851498580700991
 20
41.6347234785705993
 30
0.0
 11
92.4851498580700877
 21
41.6347234785705993
 31
0.0
  0
LINE
  5
28BDE
  8
本体1
 62
     2
 10
92.8851498580700934
 20
44.2379160339309507
 30
0.0
 11
92.8851498580700934
 21
41.6347234785705993
 31
0.0
  0
LINE
  5
28BDF
  8
本体1
 62
     2
 10
95.2851498580700706
 20
44.2379160339309507
 30
0.0
 11
95.2851498580700706
 21
41.6347234785705993
 31
0.0
  0
LINE
  5
28BE0
  8
本体1
 62
     2
 10
93.2851498580700849
 20
41.6347234785705993
 30
0.0
 11
94.885149858070065
 21
41.6347234785705993
 31
0.0
  0
LINE
  5
28BE4
  8
寸法
 62
     2
 10
47.6079965496667228
 20
90.678946590067909
 30
0.0
 11
45.7621347283867976
 21
90.678946590067909
 31
0.0
  0
LINE
  5
28BE5
  8
寸法
 62
     2
 10
47.6079965496667228
 20
84.678946590067909
 30
0.0
 11
45.7621347283867976
 21
84.678946590067909
 31
0.0
  0
LINE
  5
28BE6
  8
寸法
 62
     2
 10
45.7621347283867976
 20
90.2789465900679033
 30
0.0
 11
45.7621347283867976
 21
85.0789465900679147
 31
0.0
  0
LINE
  5
28BEA
  8
寸法
 62
     2
 10
47.6079965496667512
 20
84.678946590067909
 30
0.0
 11
45.7621347283868687
 21
84.678946590067909
 31
0.0
  0
LINE
  5
28BEB
  8
寸法
 62
     2
 10
47.6079965496667512
 20
82.4789465900679204
 30
0.0
 11
45.7621347283868687
 21
82.4789465900679204
 31
0.0
  0
LINE
  5
28BEC
  8
寸法
 62
     2
 10
45.7621347283868687
 20
84.2789465900679033
 30
0.0
 11
45.7621347283868687
 21
82.8789465900679261
 31
0.0
  0
LINE
  5
28BF0
  8
寸法
 62
     2
 10
47.8942475972700379
 20
51.8789465900678266
 30
0.0
 11
45.7621347283869682
 21
51.8789465900678266
 31
0.0
  0
LINE
  5
28BF1
  8
寸法
 62
     2
 10
47.8942475972700379
 20
48.0789465900679431
 30
0.0
 11
45.7621347283869682
 21
48.0789465900679431
 31
0.0
  0
LINE
  5
28BF2
  8
寸法
 62
     2
 10
45.7621347283869682
 20
51.4789465900678422
 30
0.0
 11
45.7621347283869682
 21
48.4789465900679417
 31
0.0
  0
LINE
  5
28BF6
  8
寸法
 62
     2
 10
47.6079965496667228
 20
82.4789465900679204
 30
0.0
 11
45.7621347283868474
 21
82.4789465900679204
 31
0.0
  0
LINE
  5
28BF7
  8
寸法
 62
     2
 10
47.6079965496667228
 20
76.4789465900679204
 30
0.0
 11
45.7621347283868616
 21
76.4789465900679204
 31
0.0
  0
LINE
  5
28BF8
  8
寸法
 62
     2
 10
45.7621347283868474
 20
82.0789465900679147
 30
0.0
 11
45.7621347283868616
 21
76.8789465900679261
 31
0.0
  0
LINE
  5
28BFC
  8
寸法
 62
     2
 10
47.6079965496667512
 20
76.4789465900679204
 30
0.0
 11
45.7621347283868971
 21
76.4789465900679204
 31
0.0
  0
LINE
  5
28BFD
  8
寸法
 62
     2
 10
47.6079965496667512
 20
74.2789465900678749
 30
0.0
 11
45.7621347283868971
 21
74.2789465900678749
 31
0.0
  0
LINE
  5
28BFE
  8
寸法
 62
     2
 10
45.7621347283868971
 20
76.0789465900679147
 30
0.0
 11
45.7621347283868971
 21
74.6789465900678806
 31
0.0
  0
LINE
  5
28C02
  8
寸法
 62
     2
 10
47.6079965496667512
 20
74.2789465900678749
 30
0.0
 11
45.7621347283868616
 21
74.2789465900678749
 31
0.0
  0
LINE
  5
28C03
  8
寸法
 62
     2
 10
47.6079965496667512
 20
68.2789465900678749
 30
0.0
 11
45.7621347283868616
 21
68.2789465900678749
 31
0.0
  0
LINE
  5
28C04
  8
寸法
 62
     2
 10
45.7621347283868616
 20
73.8789465900678692
 30
0.0
 11
45.7621347283868616
 21
68.6789465900678806
 31
0.0
  0
LINE
  5
28C08
  8
寸法
 62
     2
 10
47.6079965496667512
 20
68.2789465900678749
 30
0.0
 11
45.7621347283868687
 21
68.2789465900678749
 31
0.0
  0
LINE
  5
28C09
  8
寸法
 62
     2
 10
47.6079965496667725
 20
66.0789465900678863
 30
0.0
 11
45.7621347283868687
 21
66.0789465900678863
 31
0.0
  0
LINE
  5
28C0A
  8
寸法
 62
     2
 10
45.7621347283868687
 20
67.8789465900678692
 30
0.0
 11
45.7621347283868687
 21
66.478946590067892
 31
0.0
  0
LINE
  5
28C0E
  8
寸法
 62
     2
 10
47.6079965496667512
 20
66.0789465900678863
 30
0.0
 11
45.76213472838689
 21
66.0789465900678863
 31
0.0
  0
LINE
  5
28C0F
  8
寸法
 62
     2
 10
47.6079965496667512
 20
60.0789465900678792
 30
0.0
 11
45.76213472838689
 21
60.0789465900678792
 31
0.0
  0
LINE
  5
28C10
  8
寸法
 62
     2
 10
45.76213472838689
 20
65.6789465900678806
 30
0.0
 11
45.76213472838689
 21
60.4789465900678778
 31
0.0
  0
LINE
  5
28C14
  8
寸法
 62
     2
 10
47.6079965496667512
 20
60.0789465900678792
 30
0.0
 11
45.7621347283869326
 21
60.0789465900678792
 31
0.0
  0
LINE
  5
28C15
  8
寸法
 62
     2
 10
47.6079965496667725
 20
57.8789465900678906
 30
0.0
 11
45.7621347283869326
 21
57.8789465900678906
 31
0.0
  0
LINE
  5
28C16
  8
寸法
 62
     2
 10
45.7621347283869326
 20
59.6789465900678806
 30
0.0
 11
45.7621347283869326
 21
58.2789465900678891
 31
0.0
  0
LINE
  5
28C1A
  8
寸法
 62
     2
 10
47.6079965496667725
 20
57.8789465900678266
 30
0.0
 11
45.7621347283869113
 21
57.8789465900678266
 31
0.0
  0
LINE
  5
28C1B
  8
寸法
 62
     2
 10
47.6079965496667725
 20
51.8789465900678266
 30
0.0
 11
45.7621347283869113
 21
51.8789465900678266
 31
0.0
  0
LINE
  5
28C1C
  8
寸法
 62
     2
 10
45.7621347283869113
 20
57.478946590067828
 30
0.0
 11
45.7621347283869113
 21
52.2789465900678323
 31
0.0
  0
LINE
  5
28C20
  8
寸法
 62
     2
 10
49.2851498580700991
 20
95.8789465900679545
 30
0.0
 11
45.7621347283867621
 21
95.8789465900679545
 31
0.0
  0
LINE
  5
28C21
  8
寸法
 62
     2
 10
49.2851498580700991
 20
90.6789465900679374
 30
0.0
 11
45.7621347283867621
 21
90.6789465900679374
 31
0.0
  0
LINE
  5
28C22
  8
寸法
 62
     2
 10
45.7621347283867621
 20
95.4789465900679488
 30
0.0
 11
45.7621347283867621
 21
91.0789465900679431
 31
0.0
  0
LINE
  5
28C32
  8
寸法
 62
     2
 10
206.748489734305906
 20
168.2820122932926097
 30
0.0
 11
196.1199970238212984
 21
168.2820122932926097
 31
0.0
  0
LINE
  5
28C33
  8
寸法
 62
     2
 10
206.7484897343057924
 20
50.1863813862871879
 30
0.0
 11
196.1199970238214121
 21
50.1863813862871879
 31
0.0
  0
LINE
  5
28C34
  8
寸法
 62
     2
 10
196.1199970238212984
 20
167.882012293292604
 30
0.0
 11
196.1199970238214121
 21
50.5863813862871865
 31
0.0
  0
LINE
  5
28C38
  8
寸法
 62
     2
 10
49.2851498580700991
 20
108.0789465900679005
 30
0.0
 11
38.8361657729445326
 21
108.0789465900679005
 31
0.0
  0
LINE
  5
28C39
  8
寸法
 62
     2
 10
49.2851498580700991
 20
48.0789465900679289
 30
0.0
 11
38.8361657729445398
 21
48.0789465900679218
 31
0.0
  0
LINE
  5
28C3A
  8
寸法
 62
     2
 10
38.8361657729445326
 20
107.6789465900678948
 30
0.0
 11
38.8361657729445398
 21
48.4789465900679204
 31
0.0
  0
POLYLINE
  5
28C3E
  8
0
  6
BYBLOCK
 62
     0
 66
     1
 10
0.0
 20
0.0
 30
0.0
 70
     1
 40
0.4
 41
0.4
  0
VERTEX
  5
28E19
  8
0
  6
BYBLOCK
 62
     0
 10
32.1188374881656529
 20
151.7027469316265922
 30
0.0
 42
1.0
  0
VERTEX
  5
28E1A
  8
0
  6
BYBLOCK
 62
     0
 10
31.7188374881656507
 20
151.7027469316265922
 30
0.0
 42
1.0
  0
SEQEND
  5
28E1B
  8
0
  6
BYBLOCK
 62
     0
  0
LINE
  5
28C3F
  8
0
  6
BYBLOCK
 62
     0
 10
32.3188374881656486
 20
151.7027469316265922
 30
0.0
 11
32.7188374881656472
 21
151.7027469316265922
 31
0.0
  0
POLYLINE
  5
28C40
  8
0
  6
BYBLOCK
 62
     0
 66
     1
 10
0.0
 20
0.0
 30
0.0
 70
     1
 40
0.4
 41
0.4
  0
VERTEX
  5
28E1C
  8
0
  6
BYBLOCK
 62
     0
 10
113.118837488166605
 20
151.7027469316265922
 30
0.0
 42
1.0
  0
VERTEX
  5
28E1D
  8
0
  6
BYBLOCK
 62
     0
 10
113.5188374881665965
 20
151.7027469316265922
 30
0.0
 42
1.0
  0
SEQEND
  5
28E1E
  8
0
  6
BYBLOCK
 62
     0
  0
LINE
  5
28C41
  8
0
  6
BYBLOCK
 62
     0
 10
112.9188374881666022
 20
151.7027469316265922
 30
0.0
 11
112.5188374881665965
 21
151.7027469316265922
 31
0.0
  0
TEXT
  5
28C42
  8
寸法
 62
     2
 10
69.4188374881654653
 20
152.3027469316265865
 30
0.0
 40
2.399999999999999
  1
454
  7
角ゴ
  0
POLYLINE
  5
28C43
  8
0
  6
BYBLOCK
 62
     0
 66
     1
 10
0.0
 20
0.0
 30
0.0
 70
     1
 40
0.4
 41
0.4
  0
VERTEX
  5
28E1F
  8
0
  6
BYBLOCK
 62
     0
 10
109.618807488166496
 20
156.084459626879692
 30
0.0
 42
1.0
  0
VERTEX
  5
28E20
  8
0
  6
BYBLOCK
 62
     0
 10
110.0188074881665017
 20
156.084459626879692
 30
0.0
 42
1.0
  0
SEQEND
  5
28E21
  8
0
  6
BYBLOCK
 62
     0
  0
LINE
  5
28C44
  8
0
  6
BYBLOCK
 62
     0
 10
109.4188074881664932
 20
156.084459626879692
 30
0.0
 11
109.0188074881665017
 21
156.084459626879692
 31
0.0
  0
POLYLINE
  5
28C45
  8
0
  6
BYBLOCK
 62
     0
 66
     1
 10
0.0
 20
0.0
 30
0.0
 70
     1
 40
0.4
 41
0.4
  0
VERTEX
  5
28E22
  8
0
  6
BYBLOCK
 62
     0
 10
35.6188043423206366
 20
156.084459626879692
 30
0.0
 42
1.0
  0
VERTEX
  5
28E23
  8
0
  6
BYBLOCK
 62
     0
 10
35.2188043423206381
 20
156.084459626879692
 30
0.0
 42
1.0
  0
SEQEND
  5
28E24
  8
0
  6
BYBLOCK
 62
     0
  0
LINE
  5
28C46
  8
0
  6
BYBLOCK
 62
     0
 10
35.8188043423206395
 20
156.084459626879692
 30
0.0
 11
36.2188043423206381
 21
156.084459626879692
 31
0.0
  0
TEXT
  5
28C47
  8
寸法
 62
     2
 10
69.6188059152435699
 20
156.6844596268796863
 30
0.0
 40
2.399999999999999
  1
440
  7
角ゴ
  0
POLYLINE
  5
28C48
  8
0
  6
BYBLOCK
 62
     0
 66
     1
 10
0.0
 20
0.0
 30
0.0
 70
     1
 40
0.4
 41
0.4
  0
VERTEX
  5
28E25
  8
0
  6
BYBLOCK
 62
     0
 10
35.2188043423206381
 20
156.084459626879692
 30
0.0
 42
1.0
  0
VERTEX
  5
28E26
  8
0
  6
BYBLOCK
 62
     0
 10
35.6188043423206366
 20
156.084459626879692
 30
0.0
 42
1.0
  0
SEQEND
  5
28E27
  8
0
  6
BYBLOCK
 62
     0
  0
LINE
  5
28C49
  8
0
  6
BYBLOCK
 62
     0
 10
35.0188043423206423
 20
156.084459626879692
 30
0.0
 11
34.6188043423206366
 21
156.084459626879692
 31
0.0
  0
POLYLINE
  5
28C4A
  8
0
  6
BYBLOCK
 62
     0
 66
     1
 10
0.0
 20
0.0
 30
0.0
 70
     1
 40
0.4
 41
0.4
  0
VERTEX
  5
28E28
  8
0
  6
BYBLOCK
 62
     0
 10
32.1188374881656529
 20
156.084459626879692
 30
0.0
 42
1.0
  0
VERTEX
  5
28E29
  8
0
  6
BYBLOCK
 62
     0
 10
31.7188374881656507
 20
156.084459626879692
 30
0.0
 42
1.0
  0
SEQEND
  5
28E2A
  8
0
  6
BYBLOCK
 62
     0
  0
LINE
  5
28C4B
  8
0
  6
BYBLOCK
 62
     0
 10
32.3188374881656486
 20
156.084459626879692
 30
0.0
 11
32.7188374881656472
 21
156.084459626879692
 31
0.0
  0
TEXT
  5
28C4C
  8
寸法
 62
     2
 10
32.8688209152431483
 20
156.6844596268796863
 30
0.0
 40
2.399999999999999
  1
7
  7
角ゴ
  0
POLYLINE
  5
28C4D
  8
0
  6
BYBLOCK
 62
     0
 66
     1
 10
0.0
 20
0.0
 30
0.0
 70
     1
 40
0.4000000000000002
 41
0.4000000000000002
  0
VERTEX
  5
28E2B
  8
0
  6
BYBLOCK
 62
     0
 10
24.91883748817175
 20
169.3131355930318023
 30
0.0
 42
1.0
  0
VERTEX
  5
28E2C
  8
0
  6
BYBLOCK
 62
     0
 10
24.91883748817175
 20
169.713135593031808
 30
0.0
 42
1.0
  0
SEQEND
  5
28E2D
  8
0
  6
BYBLOCK
 62
     0
  0
LINE
  5
28C4E
  8
0
  6
BYBLOCK
 62
     0
 10
24.91883748817175
 20
169.1131355930318136
 30
0.0
 11
24.91883748817175
 21
168.713135593031808
 31
0.0
  0
POLYLINE
  5
28C4F
  8
0
  6
BYBLOCK
 62
     0
 66
     1
 10
0.0
 20
0.0
 30
0.0
 70
     1
 40
0.4
 41
0.4
  0
VERTEX
  5
28E2E
  8
0
  6
BYBLOCK
 62
     0
 10
24.91883748817175
 20
162.2131855930317101
 30
0.0
 42
1.0
  0
VERTEX
  5
28E2F
  8
0
  6
BYBLOCK
 62
     0
 10
24.91883748817175
 20
161.8131855930317045
 30
0.0
 42
1.0
  0
SEQEND
  5
28E30
  8
0
  6
BYBLOCK
 62
     0
  0
LINE
  5
28C50
  8
0
  6
BYBLOCK
 62
     0
 10
24.91883748817175
 20
162.4131855930316988
 30
0.0
 11
24.91883748817175
 21
162.8131855930317045
 31
0.0
  0
TEXT
  5
28C51
  8
寸法
 62
     2
 10
24.3188374881717806
 20
164.163160593031705
 30
0.0
 40
2.399999999999999
  1
15
 50
90.0
  7
角ゴ
  0
POLYLINE
  5
28C52
  8
0
  6
BYBLOCK
 62
     0
 66
     1
 10
0.0
 20
0.0
 30
0.0
 70
     1
 40
0.4
 41
0.4
  0
VERTEX
  5
28E31
  8
0
  6
BYBLOCK
 62
     0
 10
113.118837488166605
 20
156.084459626879692
 30
0.0
 42
1.0
  0
VERTEX
  5
28E32
  8
0
  6
BYBLOCK
 62
     0
 10
113.5188374881665965
 20
156.084459626879692
 30
0.0
 42
1.0
  0
SEQEND
  5
28E33
  8
0
  6
BYBLOCK
 62
     0
  0
LINE
  5
28C53
  8
0
  6
BYBLOCK
 62
     0
 10
112.9188374881666022
 20
156.084459626879692
 30
0.0
 11
112.5188374881665965
 21
156.084459626879692
 31
0.0
  0
POLYLINE
  5
28C54
  8
0
  6
BYBLOCK
 62
     0
 66
     1
 10
0.0
 20
0.0
 30
0.0
 70
     1
 40
0.4
 41
0.4
  0
VERTEX
  5
28E34
  8
0
  6
BYBLOCK
 62
     0
 10
110.0188074881665017
 20
156.084459626879692
 30
0.0
 42
1.0
  0
VERTEX
  5
28E35
  8
0
  6
BYBLOCK
 62
     0
 10
109.618807488166496
 20
156.084459626879692
 30
0.0
 42
1.0
  0
SEQEND
  5
28E36
  8
0
  6
BYBLOCK
 62
     0
  0
LINE
  5
28C55
  8
0
  6
BYBLOCK
 62
     0
 10
110.2188074881665045
 20
156.084459626879692
 30
0.0
 11
110.618807488166496
 21
156.084459626879692
 31
0.0
  0
TEXT
  5
28C56
  8
寸法
 62
     2
 10
110.7688224881665064
 20
156.6844596268796863
 30
0.0
 40
2.399999999999999
  1
7
  7
角ゴ
  0
POLYLINE
  5
28C57
  8
0
  6
BYBLOCK
 62
     0
 66
     1
 10
0.0
 20
0.0
 30
0.0
 70
     1
 40
0.4
 41
0.4
  0
VERTEX
  5
28E37
  8
0
  6
BYBLOCK
 62
     0
 10
32.0691545614739795
 20
168.6035471786676965
 30
0.0
 42
1.0
  0
VERTEX
  5
28E38
  8
0
  6
BYBLOCK
 62
     0
 10
31.7871765587132096
 20
168.3198423920337063
 30
0.0
 42
1.0
  0
SEQEND
  5
28E39
  8
0
  6
BYBLOCK
 62
     0
  0
LINE
  5
28C58
  8
0
  6
BYBLOCK
 62
     0
 10
32.2101435628543626
 20
168.7453995719847057
 30
0.0
 11
32.4921215656151219
 21
169.0291043586186959
 31
0.0
  0
LINE
  5
28C59
  8
注釈
 10
32.4921215656151219
 20
169.0291043586186959
 30
0.0
 11
54.5110310754217835
 21
191.1828538115265985
 31
0.0
1001
ACAD
1000
DSTYLE
1002
{
1070
   147
1040
0.09
1070
    41
1040
0.8
1070
    42
1040
2.0
1070
    43
1040
0.35
1070
    44
1040
0.0
1070
    73
1070
     0
1070
    74
1070
     0
1070
    77
1070
     0
1070
    78
1070
     8
1070
   140
1040
2.399999999999999
1070
   144
1040
2.0
1070
   176
1070
     2
1070
   177
1070
     2
1070
   178
1070
     2
1070
   271
1070
     1
1070
   272
1070
     1
1070
   340
1005
2278D
1070
   341
1005
36B9
1070
   342
1005
36B9
1070
   371
1070
    -1
1070
   372
1070
    -1
1002
}
  0
POLYLINE
  5
28C5A
  8
0
  6
BYBLOCK
 62
     0
 66
     1
 10
0.0
 20
0.0
 30
0.0
 70
     1
 40
0.4
 41
0.4
  0
VERTEX
  5
28E3A
  8
0
  6
BYBLOCK
 62
     0
 10
38.114584067583003
 20
163.0814295025406864
 30
0.0
 42
1.0
  0
VERTEX
  5
28E3B
  8
0
  6
BYBLOCK
 62
     0
 10
37.8326060648222366
 20
162.7977247159066962
 30
0.0
 42
1.0
  0
SEQEND
  5
28E3C
  8
0
  6
BYBLOCK
 62
     0
  0
LINE
  5
28C5B
  8
0
  6
BYBLOCK
 62
     0
 10
38.2555730689633933
 20
163.2232818958576956
 30
0.0
 11
38.5375510717241667
 21
163.5069866824917142
 31
0.0
  0
LINE
  5
28C5C
  8
注釈
 10
38.5375510717241667
 20
163.5069866824917142
 30
0.0
 11
51.2715807004784665
 21
176.3189972770975089
 31
0.0
1001
ACAD
1000
DSTYLE
1002
{
1070
   147
1040
0.09
1070
    41
1040
0.8
1070
    42
1040
2.0
1070
    43
1040
0.35
1070
    44
1040
0.0
1070
    73
1070
     0
1070
    74
1070
     0
1070
    77
1070
     0
1070
    78
1070
     8
1070
   140
1040
2.399999999999999
1070
   144
1040
2.0
1070
   176
1070
     2
1070
   177
1070
     2
1070
   178
1070
     2
1070
   271
1070
     1
1070
   272
1070
     1
1070
   340
1005
2278D
1070
   341
1005
36B9
1070
   342
1005
36B9
1070
   371
1070
    -1
1070
   372
1070
    -1
1002
}
  0
POLYLINE
  5
28C5D
  8
0
  6
BYBLOCK
 62
     0
 66
     1
 10
0.0
 20
0.0
 30
0.0
 70
     1
 40
0.4
 41
0.4
  0
VERTEX
  5
28E3D
  8
0
  6
BYBLOCK
 62
     0
 10
209.6207708415834077
 20
144.0635426070680012
 30
0.0
 42
1.0
  0
VERTEX
  5
28E3E
  8
0
  6
BYBLOCK
 62
     0
 10
209.3387928388227124
 20
143.7798378204338974
 30
0.0
 42
1.0
  0
SEQEND
  5
28E3F
  8
0
  6
BYBLOCK
 62
     0
  0
LINE
  5
28C5E
  8
0
  6
BYBLOCK
 62
     0
 10
209.7617598429638122
 20
144.2053950003850105
 30
0.0
 11
210.0437378457245927
 21
144.4890997870190006
 31
0.0
  0
LINE
  5
28C5F
  8
注釈
 10
210.0437378457245927
 20
144.4890997870190006
 30
0.0
 11
224.4707129211500956
 21
159.0044231295277939
 31
0.0
1001
ACAD
1000
DSTYLE
1002
{
1070
   147
1040
0.09
1070
    41
1040
0.8
1070
    42
1040
2.0
1070
    43
1040
0.35
1070
    44
1040
0.0
1070
    73
1070
     0
1070
    74
1070
     0
1070
    77
1070
     0
1070
    78
1070
     8
1070
   140
1040
2.399999999999999
1070
   144
1040
2.0
1070
   176
1070
     2
1070
   177
1070
     2
1070
   178
1070
     2
1070
   271
1070
     1
1070
   272
1070
     1
1070
   340
1005
2278D
1070
   341
1005
36B9
1070
   342
1005
36B9
1070
   371
1070
    -1
1070
   372
1070
    -1
1002
}
  0
POLYLINE
  5
28C60
  8
0
  6
BYBLOCK
 62
     0
 66
     1
 10
0.0
 20
0.0
 30
0.0
 70
     1
 40
0.4
 41
0.4
  0
VERTEX
  5
28E40
  8
0
  6
BYBLOCK
 62
     0
 10
211.9212625882148018
 20
167.5471360441055992
 30
0.0
 42
1.0
  0
VERTEX
  5
28E41
  8
0
  6
BYBLOCK
 62
     0
 10
211.6380206097543066
 20
167.2646931620253952
 30
0.0
 42
1.0
  0
SEQEND
  5
28E42
  8
0
  6
BYBLOCK
 62
     0
  0
LINE
  5
28C61
  8
0
  6
BYBLOCK
 62
     0
 10
212.0628835774450067
 20
167.6883574851457013
 30
0.0
 11
212.3461255559055019
 21
167.9708003672259906
 31
0.0
  0
LINE
  5
28C62
  8
注釈
 10
212.3461255559055019
 20
167.9708003672259906
 30
0.0
 11
223.2497804357516031
 21
178.8436933127237012
 31
0.0
1001
ACAD
1000
DSTYLE
1002
{
1070
   147
1040
0.09
1070
    41
1040
0.8
1070
    42
1040
2.0
1070
    43
1040
0.35
1070
    44
1040
0.0
1070
    73
1070
     0
1070
    74
1070
     0
1070
    77
1070
     0
1070
    78
1070
     8
1070
   140
1040
2.399999999999999
1070
   144
1040
2.0
1070
   176
1070
     2
1070
   177
1070
     2
1070
   178
1070
     2
1070
   271
1070
     1
1070
   272
1070
     1
1070
   340
1005
2278D
1070
   341
1005
36B9
1070
   342
1005
36B9
1070
   371
1070
    -1
1070
   372
1070
    -1
1002
}
  0
POLYLINE
  5
28C63
  8
0
  6
BYBLOCK
 62
     0
 66
     1
 10
0.0
 20
0.0
 30
0.0
 70
     1
 40
0.4
 41
0.4
  0
VERTEX
  5
28E43
  8
0
  6
BYBLOCK
 62
     0
 10
93.3470547093987761
 20
167.4044235732856123
 30
0.0
 42
1.0
  0
VERTEX
  5
28E44
  8
0
  6
BYBLOCK
 62
     0
 10
93.0650767066380098
 20
167.1207187866515937
 30
0.0
 42
1.0
  0
SEQEND
  5
28E45
  8
0
  6
BYBLOCK
 62
     0
  0
LINE
  5
28C64
  8
0
  6
BYBLOCK
 62
     0
 10
93.4880437107791806
 20
167.5462759666025931
 30
0.0
 11
93.7700217135399612
 21
167.829980753236697
 31
0.0
  0
LINE
  5
28C65
  8
注釈
 10
93.7700217135399612
 20
167.829980753236697
 30
0.0
 11
106.4638847949454998
 21
180.6015788275963985
 31
0.0
1001
ACAD
1000
DSTYLE
1002
{
1070
   147
1040
0.09
1070
    41
1040
0.8
1070
    42
1040
2.0
1070
    43
1040
0.35
1070
    44
1040
0.0
1070
    73
1070
     0
1070
    74
1070
     0
1070
    77
1070
     0
1070
    78
1070
     8
1070
   140
1040
2.399999999999999
1070
   144
1040
2.0
1070
   176
1070
     2
1070
   177
1070
     2
1070
   178
1070
     2
1070
   271
1070
     1
1070
   272
1070
     1
1070
   340
1005
2278D
1070
   341
1005
36B9
1070
   342
1005
36B9
1070
   371
1070
    -1
1070
   372
1070
    -1
1002
}
  0
POLYLINE
  5
28C66
  8
0
  6
BYBLOCK
 62
     0
 66
     1
 10
0.0
 20
0.0
 30
0.0
 70
     1
 40
0.2000000000000001
 41
0.2000000000000001
  0
VERTEX
  5
28E46
  8
0
  6
BYBLOCK
 62
     0
 10
45.7621347283867692
 20
107.9789465900679062
 30
0.0
 42
1.0
  0
VERTEX
  5
28E47
  8
0
  6
BYBLOCK
 62
     0
 10
45.7621347283867692
 20
108.1789465900678948
 30
0.0
 42
1.0
  0
SEQEND
  5
28E48
  8
0
  6
BYBLOCK
 62
     0
  0
LINE
  5
28C67
  8
0
  6
BYBLOCK
 62
     0
 10
45.7621347283867692
 20
107.8789465900678977
 30
0.0
 11
45.7621347283867692
 21
107.6789465900678948
 31
0.0
  0
POLYLINE
  5
28C68
  8
0
  6
BYBLOCK
 62
     0
 66
     1
 10
0.0
 20
0.0
 30
0.0
 70
     1
 40
0.2
 41
0.2
  0
VERTEX
  5
28E49
  8
0
  6
BYBLOCK
 62
     0
 10
45.7621347283867692
 20
96.178946590067909
 30
0.0
 42
1.0
  0
VERTEX
  5
28E4A
  8
0
  6
BYBLOCK
 62
     0
 10
45.7621347283867692
 20
95.9789465900679204
 30
0.0
 42
1.0
  0
SEQEND
  5
28E4B
  8
0
  6
BYBLOCK
 62
     0
  0
LINE
  5
28C69
  8
0
  6
BYBLOCK
 62
     0
 10
45.7621347283867692
 20
96.2789465900679033
 30
0.0
 11
45.7621347283867692
 21
96.4789465900679346
 31
0.0
  0
TEXT
  5
28C6A
  8
寸法
 62
     2
 10
45.1371347283867976
 20
100.453946590067801
 30
0.0
 40
1.5
  1
120
 50
90.0
  0
POLYLINE
  5
28C6B
  8
0
  6
BYBLOCK
 62
     0
 66
     1
 10
0.0
 20
0.0
 30
0.0
 70
     1
 40
0.2
 41
0.2
  0
VERTEX
  5
28E4C
  8
0
  6
BYBLOCK
 62
     0
 10
45.6783771147763389
 20
96.178946590067909
 30
0.0
 42
1.0
  0
VERTEX
  5
28E4D
  8
0
  6
BYBLOCK
 62
     0
 10
45.6783771147763389
 20
95.9789465900679204
 30
0.0
 42
1.0
  0
SEQEND
  5
28E4E
  8
0
  6
BYBLOCK
 62
     0
  0
LINE
  5
28C6C
  8
0
  6
BYBLOCK
 62
     0
 10
45.6783771147763389
 20
96.2789465900679033
 30
0.0
 11
45.6783771147763389
 21
96.4789465900679346
 31
0.0
  0
POLYLINE
  5
28C6D
  8
0
  6
BYBLOCK
 62
     0
 66
     1
 10
0.0
 20
0.0
 30
0.0
 70
     1
 40
0.2000000000000001
 41
0.2000000000000001
  0
VERTEX
  5
28E4F
  8
0
  6
BYBLOCK
 62
     0
 10
45.6783771147763389
 20
95.7789465900679602
 30
0.0
 42
1.0
  0
VERTEX
  5
28E50
  8
0
  6
BYBLOCK
 62
     0
 10
45.6783771147763389
 20
95.9789465900679488
 30
0.0
 42
1.0
  0
SEQEND
  5
28E51
  8
0
  6
BYBLOCK
 62
     0
  0
LINE
  5
28C6E
  8
0
  6
BYBLOCK
 62
     0
 10
45.6783771147763389
 20
95.6789465900679374
 30
0.0
 11
45.6783771147763389
 21
95.4789465900679488
 31
0.0
  0
TEXT
  5
28C6F
  8
寸法
 62
     2
 10
45.0533771147763602
 20
95.478946590067892
 30
0.0
 40
1.5
  1
2
 50
90.0
  0
POLYLINE
  5
28C70
  8
0
  6
BYBLOCK
 62
     0
 66
     1
 10
0.0
 20
0.0
 30
0.0
 70
     1
 40
0.2000000000000001
 41
0.2000000000000001
  0
VERTEX
  5
28E52
  8
0
  6
BYBLOCK
 62
     0
 10
203.8058464059766095
 20
168.1798668458459929
 30
0.0
 42
1.0
  0
VERTEX
  5
28E53
  8
0
  6
BYBLOCK
 62
     0
 10
203.8058464059766095
 20
168.3798668458460099
 30
0.0
 42
1.0
  0
SEQEND
  5
28E54
  8
0
  6
BYBLOCK
 62
     0
  0
LINE
  5
28C71
  8
0
  6
BYBLOCK
 62
     0
 10
203.8058464059766095
 20
168.0798668458459986
 30
0.0
 11
203.8058464059766095
 21
167.8798668458460099
 31
0.0
  0
POLYLINE
  5
28C72
  8
0
  6
BYBLOCK
 62
     0
 66
     1
 10
0.0
 20
0.0
 30
0.0
 70
     1
 40
0.2
 41
0.2
  0
VERTEX
  5
28E55
  8
0
  6
BYBLOCK
 62
     0
 10
203.8058464059766095
 20
128.3809244328857915
 30
0.0
 42
1.0
  0
VERTEX
  5
28E56
  8
0
  6
BYBLOCK
 62
     0
 10
203.8058464059766095
 20
128.1809244328858028
 30
0.0
 42
1.0
  0
SEQEND
  5
28E57
  8
0
  6
BYBLOCK
 62
     0
  0
LINE
  5
28C73
  8
0
  6
BYBLOCK
 62
     0
 10
203.8058464059766095
 20
128.4809244328857858
 30
0.0
 11
203.8058464059766095
 21
128.6809244328858028
 31
0.0
  0
TEXT
  5
28C74
  8
寸法
 62
     2
 10
203.1808464059766095
 20
145.6803956393657984
 30
0.0
 40
2.399999999999999
  1
120
 50
90.0
  0
POLYLINE
  5
28C75
  8
0
  6
BYBLOCK
 62
     0
 66
     1
 10
0.0
 20
0.0
 30
0.0
 70
     1
 40
0.2
 41
0.2
  0
VERTEX
  5
28E58
  8
0
  6
BYBLOCK
 62
     0
 10
200.8761255656652054
 20
128.3812230615104966
 30
0.0
 42
1.0
  0
VERTEX
  5
28E59
  8
0
  6
BYBLOCK
 62
     0
 10
200.8761255656652054
 20
128.1812230615105079
 30
0.0
 42
1.0
  0
SEQEND
  5
28E5A
  8
0
  6
BYBLOCK
 62
     0
  0
LINE
  5
28C76
  8
0
  6
BYBLOCK
 62
     0
 10
200.8761255656652054
 20
128.4812230615104909
 30
0.0
 11
200.8761255656652054
 21
128.6812230615105079
 31
0.0
  0
POLYLINE
  5
28C77
  8
0
  6
BYBLOCK
 62
     0
 66
     1
 10
0.0
 20
0.0
 30
0.0
 70
     1
 40
0.2000000000000001
 41
0.2000000000000001
  0
VERTEX
  5
28E5B
  8
0
  6
BYBLOCK
 62
     0
 10
200.8761255656652054
 20
127.5135209118722059
 30
0.0
 42
1.0
  0
VERTEX
  5
28E5C
  8
0
  6
BYBLOCK
 62
     0
 10
200.8761255656652054
 20
127.7135209118720951
 30
0.0
 42
1.0
  0
SEQEND
  5
28E5D
  8
0
  6
BYBLOCK
 62
     0
  0
LINE
  5
28C78
  8
0
  6
BYBLOCK
 62
     0
 10
200.8761255656652054
 20
127.4135209118720979
 30
0.0
 11
200.8761255656652054
 21
127.2135209118720951
 31
0.0
  0
TEXT
  5
28C79
  8
寸法
 62
     2
 10
200.2511255656652054
 20
124.5885209118720951
 30
0.0
 40
2.399999999999999
  1
2
 50
90.0
  0
POLYLINE
  5
28C7A
  8
0
  6
BYBLOCK
 62
     0
 66
     1
 10
0.0
 20
0.0
 30
0.0
 70
     1
 40
0.2
 41
0.2
  0
VERTEX
  5
28E5E
  8
0
  6
BYBLOCK
 62
     0
 10
208.848489734304593
 20
174.5780922628385099
 30
0.0
 42
1.0
  0
VERTEX
  5
28E5F
  8
0
  6
BYBLOCK
 62
     0
 10
208.6484897343046043
 20
174.5780922628385099
 30
0.0
 42
1.0
  0
SEQEND
  5
28E60
  8
0
  6
BYBLOCK
 62
     0
  0
LINE
  5
28C7B
  8
0
  6
BYBLOCK
 62
     0
 10
208.9484897343045873
 20
174.5780922628385099
 30
0.0
 11
209.1484897343046043
 21
174.5780922628385099
 31
0.0
  0
POLYLINE
  5
28C7C
  8
0
  6
BYBLOCK
 62
     0
 66
     1
 10
0.0
 20
0.0
 30
0.0
 70
     1
 40
0.2
 41
0.2
  0
VERTEX
  5
28E61
  8
0
  6
BYBLOCK
 62
     0
 10
213.6830817368326052
 20
174.5780922628385099
 30
0.0
 42
1.0
  0
VERTEX
  5
28E62
  8
0
  6
BYBLOCK
 62
     0
 10
213.8830817368325938
 20
174.5780922628385099
 30
0.0
 42
1.0
  0
SEQEND
  5
28E63
  8
0
  6
BYBLOCK
 62
     0
  0
LINE
  5
28C7D
  8
0
  6
BYBLOCK
 62
     0
 10
213.5830817368326109
 20
174.5780922628385099
 30
0.0
 11
213.3830817368325938
 21
174.5780922628385099
 31
0.0
  0
TEXT
  5
28C7E
  8
寸法
 62
     2
 10
209.6657857355685906
 20
175.2030922628383962
 30
0.0
 40
2.399999999999999
  1
15
  0
POLYLINE
  5
28C7F
  8
0
  6
BYBLOCK
 62
     0
 66
     1
 10
0.0
 20
0.0
 30
0.0
 70
     1
 40
0.4
 41
0.4
  0
VERTEX
  5
28E64
  8
0
  6
BYBLOCK
 62
     0
 10
211.4763160881880992
 20
123.8223904760317993
 30
0.0
 42
1.0
  0
VERTEX
  5
28E65
  8
0
  6
BYBLOCK
 62
     0
 10
211.1930741097276041
 20
123.5399475939515952
 30
0.0
 42
1.0
  0
SEQEND
  5
28E66
  8
0
  6
BYBLOCK
 62
     0
  0
LINE
  5
28C80
  8
0
  6
BYBLOCK
 62
     0
 10
211.6179370774183042
 20
123.9636119170719013
 30
0.0
 11
211.9011790558787993
 21
124.2460547991522049
 31
0.0
  0
LINE
  5
28C81
  8
注釈
 10
211.9011790558787993
 20
124.2460547991522049
 30
0.0
 11
222.8048339357249006
 21
135.118947744649887
 31
0.0
1001
ACAD
1000
DSTYLE
1002
{
1070
   147
1040
0.09
1070
    41
1040
0.8
1070
    42
1040
2.0
1070
    43
1040
0.35
1070
    44
1040
0.0
1070
    73
1070
     0
1070
    74
1070
     0
1070
    77
1070
     0
1070
    78
1070
     8
1070
   140
1040
2.399999999999999
1070
   144
1040
2.0
1070
   176
1070
     2
1070
   177
1070
     2
1070
   178
1070
     2
1070
   271
1070
     1
1070
   272
1070
     1
1070
   340
1005
2278D
1070
   341
1005
36B9
1070
   342
1005
36B9
1070
   371
1070
    -1
1070
   372
1070
    -1
1002
}
  0
POLYLINE
  5
28C82
  8
0
  6
BYBLOCK
 62
     0
 66
     1
 10
0.0
 20
0.0
 30
0.0
 70
     1
 40
0.4
 41
0.4
  0
VERTEX
  5
28E67
  8
0
  6
BYBLOCK
 62
     0
 10
211.9679084385325893
 20
117.1920452212240065
 30
0.0
 42
1.0
  0
VERTEX
  5
28E68
  8
0
  6
BYBLOCK
 62
     0
 10
211.6859304357718088
 20
116.9083404345900021
 30
0.0
 42
1.0
  0
SEQEND
  5
28E69
  8
0
  6
BYBLOCK
 62
     0
  0
LINE
  5
28C83
  8
0
  6
BYBLOCK
 62
     0
 10
212.1088974399129938
 20
117.3338976145410015
 30
0.0
 11
212.3908754426738028
 21
117.6176024011750059
 31
0.0
  0
LINE
  5
28C84
  8
注釈
 10
212.3908754426738028
 20
117.6176024011750059
 30
0.0
 11
222.2841621859101053
 21
127.5714738986609973
 31
0.0
1001
ACAD
1000
DSTYLE
1002
{
1070
   147
1040
0.09
1070
    41
1040
0.8
1070
    42
1040
2.0
1070
    43
1040
0.35
1070
    44
1040
0.0
1070
    73
1070
     0
1070
    74
1070
     0
1070
    77
1070
     0
1070
    78
1070
     8
1070
   140
1040
2.399999999999999
1070
   144
1040
2.0
1070
   176
1070
     2
1070
   177
1070
     2
1070
   178
1070
     2
1070
   271
1070
     1
1070
   272
1070
     1
1070
   340
1005
2278D
1070
   341
1005
36B9
1070
   342
1005
36B9
1070
   371
1070
    -1
1070
   372
1070
    -1
1002
}
  0
POLYLINE
  5
28C85
  8
0
  6
BYBLOCK
 62
     0
 66
     1
 10
0.0
 20
0.0
 30
0.0
 70
     1
 40
0.4
 41
0.4
  0
VERTEX
  5
28E6A
  8
0
  6
BYBLOCK
 62
     0
 10
209.5992209191531117
 20
126.1025278554839986
 30
0.0
 42
1.0
  0
VERTEX
  5
28E6B
  8
0
  6
BYBLOCK
 62
     0
 10
209.3187199532356999
 20
125.8173626259775943
 30
0.0
 42
1.0
  0
SEQEND
  5
28E6C
  8
0
  6
BYBLOCK
 62
     0
  0
LINE
  5
28C86
  8
0
  6
BYBLOCK
 62
     0
 10
209.7394714021116897
 20
126.2451104702370941
 30
0.0
 11
210.0199723680291015
 21
126.5302756997434983
 31
0.0
  0
LINE
  5
28C87
  8
注釈
 10
210.0199723680291015
 20
126.5302756997434983
 30
0.0
 11
224.9620169739114885
 21
141.7207816054728937
 31
0.0
1001
ACAD
1000
DSTYLE
1002
{
1070
   147
1040
0.09
1070
    41
1040
0.8
1070
    42
1040
2.0
1070
    43
1040
0.35
1070
    44
1040
0.0
1070
    73
1070
     0
1070
    74
1070
     0
1070
    77
1070
     0
1070
    78
1070
     8
1070
   140
1040
2.399999999999999
1070
   144
1040
2.0
1070
   176
1070
     2
1070
   177
1070
     2
1070
   178
1070
     2
1070
   271
1070
     1
1070
   272
1070
     1
1070
   340
1005
2278D
1070
   341
1005
36B9
1070
   342
1005
36B9
1070
   371
1070
    -1
1070
   372
1070
    -1
1002
}
  0
POLYLINE
  5
28C88
  8
0
  6
BYBLOCK
 62
     0
 66
     1
 10
0.0
 20
0.0
 30
0.0
 70
     1
 40
0.4
 41
0.4
  0
VERTEX
  5
28E6D
  8
0
  6
BYBLOCK
 62
     0
 10
209.107348439097791
 20
102.4253478340046968
 30
0.0
 42
1.0
  0
VERTEX
  5
28E6E
  8
0
  6
BYBLOCK
 62
     0
 10
208.8253704363370105
 20
102.1416430473707067
 30
0.0
 42
1.0
  0
SEQEND
  5
28E6F
  8
0
  6
BYBLOCK
 62
     0
  0
LINE
  5
28C89
  8
0
  6
BYBLOCK
 62
     0
 10
209.2483374404781955
 20
102.5672002273217061
 30
0.0
 11
209.5303154432390045
 21
102.8509050139556962
 31
0.0
  0
LINE
  5
28C8A
  8
注釈
 10
209.5303154432390045
 20
102.8509050139556962
 30
0.0
 11
223.9572905186645073
 21
117.3662283564646032
 31
0.0
1001
ACAD
1000
DSTYLE
1002
{
1070
   147
1040
0.09
1070
    41
1040
0.8
1070
    42
1040
2.0
1070
    43
1040
0.35
1070
    44
1040
0.0
1070
    73
1070
     0
1070
    74
1070
     0
1070
    77
1070
     0
1070
    78
1070
     8
1070
   140
1040
2.399999999999999
1070
   144
1040
2.0
1070
   176
1070
     2
1070
   177
1070
     2
1070
   178
1070
     2
1070
   271
1070
     1
1070
   272
1070
     1
1070
   340
1005
2278D
1070
   341
1005
36B9
1070
   342
1005
36B9
1070
   371
1070
    -1
1070
   372
1070
    -1
1002
}
  0
POLYLINE
  5
28C8B
  8
0
  6
BYBLOCK
 62
     0
 66
     1
 10
0.0
 20
0.0
 30
0.0
 70
     1
 40
0.4
 41
0.4
  0
VERTEX
  5
28E70
  8
0
  6
BYBLOCK
 62
     0
 10
209.7807032477934115
 20
69.3767782820020358
 30
0.0
 42
1.0
  0
VERTEX
  5
28E71
  8
0
  6
BYBLOCK
 62
     0
 10
209.4987252450326025
 20
69.0930734953680457
 30
0.0
 42
1.0
  0
SEQEND
  5
28E72
  8
0
  6
BYBLOCK
 62
     0
  0
LINE
  5
28C8C
  8
0
  6
BYBLOCK
 62
     0
 10
209.9216922491737876
 20
69.5186306753190308
 30
0.0
 11
210.2036702519345965
 21
69.8023354619530352
 31
0.0
  0
LINE
  5
28C8D
  8
注釈
 10
210.2036702519345965
 20
69.8023354619530352
 30
0.0
 11
224.6306453273600994
 21
84.3176588044619137
 31
0.0
1001
ACAD
1000
DSTYLE
1002
{
1070
   147
1040
0.09
1070
    41
1040
0.8
1070
    42
1040
2.0
1070
    43
1040
0.35
1070
    44
1040
0.0
1070
    73
1070
     0
1070
    74
1070
     0
1070
    77
1070
     0
1070
    78
1070
     8
1070
   140
1040
2.399999999999999
1070
   144
1040
2.0
1070
   176
1070
     2
1070
   177
1070
     2
1070
   178
1070
     2
1070
   271
1070
     1
1070
   272
1070
     1
1070
   340
1005
2278D
1070
   341
1005
36B9
1070
   342
1005
36B9
1070
   371
1070
    -1
1070
   372
1070
    -1
1002
}
  0
POLYLINE
  5
28C8E
  8
0
  6
BYBLOCK
 62
     0
 66
     1
 10
0.0
 20
0.0
 30
0.0
 70
     1
 40
0.4
 41
0.4
  0
VERTEX
  5
28E73
  8
0
  6
BYBLOCK
 62
     0
 10
211.1183069178632934
 20
76.4078239413913849
 30
0.0
 42
1.0
  0
VERTEX
  5
28E74
  8
0
  6
BYBLOCK
 62
     0
 10
210.8363289151025128
 20
76.1241191547573948
 30
0.0
 42
1.0
  0
SEQEND
  5
28E75
  8
0
  6
BYBLOCK
 62
     0
  0
LINE
  5
28C8F
  8
0
  6
BYBLOCK
 62
     0
 10
211.2592959192436979
 20
76.54967633470838
 30
0.0
 11
211.5412739220043932
 21
76.8333811213423843
 31
0.0
  0
LINE
  5
28C90
  8
注釈
 10
211.5412739220043932
 20
76.8333811213423843
 30
0.0
 11
225.9682489974300097
 21
91.3487044638512202
 31
0.0
1001
ACAD
1000
DSTYLE
1002
{
1070
   147
1040
0.09
1070
    41
1040
0.8
1070
    42
1040
2.0
1070
    43
1040
0.35
1070
    44
1040
0.0
1070
    73
1070
     0
1070
    74
1070
     0
1070
    77
1070
     0
1070
    78
1070
     8
1070
   140
1040
2.399999999999999
1070
   144
1040
2.0
1070
   176
1070
     2
1070
   177
1070
     2
1070
   178
1070
     2
1070
   271
1070
     1
1070
   272
1070
     1
1070
   340
1005
2278D
1070
   341
1005
36B9
1070
   342
1005
36B9
1070
   371
1070
    -1
1070
   372
1070
    -1
1002
}
  0
POLYLINE
  5
28C91
  8
0
  6
BYBLOCK
 62
     0
 66
     1
 10
0.0
 20
0.0
 30
0.0
 70
     1
 40
0.2000000000000001
 41
0.2000000000000001
  0
VERTEX
  5
28E76
  8
0
  6
BYBLOCK
 62
     0
 10
204.6996576958351
 20
127.5157593602840933
 30
0.0
 42
1.0
  0
VERTEX
  5
28E77
  8
0
  6
BYBLOCK
 62
     0
 10
204.6996576958351
 20
127.7157593602839967
 30
0.0
 42
1.0
  0
SEQEND
  5
28E78
  8
0
  6
BYBLOCK
 62
     0
  0
LINE
  5
28C92
  8
0
  6
BYBLOCK
 62
     0
 10
204.6996576958351
 20
127.415759360284099
 30
0.0
 11
204.6996576958351
 21
127.2157593602840961
 31
0.0
  0
POLYLINE
  5
28C93
  8
0
  6
BYBLOCK
 62
     0
 66
     1
 10
0.0
 20
0.0
 30
0.0
 70
     1
 40
0.2
 41
0.2
  0
VERTEX
  5
28E79
  8
0
  6
BYBLOCK
 62
     0
 10
204.6996576958351
 20
110.3785056901956949
 30
0.0
 42
1.0
  0
VERTEX
  5
28E7A
  8
0
  6
BYBLOCK
 62
     0
 10
204.6996576958351
 20
110.1785056901957063
 30
0.0
 42
1.0
  0
SEQEND
  5
28E7B
  8
0
  6
BYBLOCK
 62
     0
  0
LINE
  5
28C94
  8
0
  6
BYBLOCK
 62
     0
 10
204.6996576958351
 20
110.4785056901957034
 30
0.0
 11
204.6996576958351
 21
110.6785056901957063
 31
0.0
  0
TEXT
  5
28C95
  8
寸法
 62
     2
 10
204.0746576958351
 20
116.9471325252397946
 30
0.0
 40
2.399999999999999
  1
52
 50
90.0
  0
POLYLINE
  5
28C96
  8
0
  6
BYBLOCK
 62
     0
 66
     1
 10
0.0
 20
0.0
 30
0.0
 70
     1
 40
0.2000000000000001
 41
0.2000000000000001
  0
VERTEX
  5
28E7C
  8
0
  6
BYBLOCK
 62
     0
 10
204.6996576958352136
 20
110.1785056901957063
 30
0.0
 42
1.0
  0
VERTEX
  5
28E7D
  8
0
  6
BYBLOCK
 62
     0
 10
204.6996576958352136
 20
110.3785056901956949
 30
0.0
 42
1.0
  0
SEQEND
  5
28E7E
  8
0
  6
BYBLOCK
 62
     0
  0
LINE
  5
28C97
  8
0
  6
BYBLOCK
 62
     0
 10
204.6996576958352136
 20
110.0785056901956978
 30
0.0
 11
204.6996576958352136
 21
109.8785056901956949
 31
0.0
  0
POLYLINE
  5
28C98
  8
0
  6
BYBLOCK
 62
     0
 66
     1
 10
0.0
 20
0.0
 30
0.0
 70
     1
 40
0.2
 41
0.2
  0
VERTEX
  5
28E7F
  8
0
  6
BYBLOCK
 62
     0
 10
204.6996576958352136
 20
90.3785056901957091
 30
0.0
 42
1.0
  0
VERTEX
  5
28E80
  8
0
  6
BYBLOCK
 62
     0
 10
204.6996576958352136
 20
90.1785056901957205
 30
0.0
 42
1.0
  0
SEQEND
  5
28E81
  8
0
  6
BYBLOCK
 62
     0
  0
LINE
  5
28C99
  8
0
  6
BYBLOCK
 62
     0
 10
204.6996576958352136
 20
90.4785056901957034
 30
0.0
 11
204.6996576958352136
 21
90.6785056901957205
 31
0.0
  0
TEXT
  5
28C9A
  8
寸法
 62
     2
 10
204.0746576958352989
 20
98.4785056901956466
 30
0.0
 40
2.399999999999999
  1
60
 50
90.0
  0
POLYLINE
  5
28C9B
  8
0
  6
BYBLOCK
 62
     0
 66
     1
 10
0.0
 20
0.0
 30
0.0
 70
     1
 40
0.2000000000000001
 41
0.2000000000000001
  0
VERTEX
  5
28E82
  8
0
  6
BYBLOCK
 62
     0
 10
204.6996576958356115
 20
90.1785056901957205
 30
0.0
 42
1.0
  0
VERTEX
  5
28E83
  8
0
  6
BYBLOCK
 62
     0
 10
204.6996576958356115
 20
90.3785056901957091
 30
0.0
 42
1.0
  0
SEQEND
  5
28E84
  8
0
  6
BYBLOCK
 62
     0
  0
LINE
  5
28C9C
  8
0
  6
BYBLOCK
 62
     0
 10
204.6996576958356115
 20
90.0785056901957262
 30
0.0
 11
204.6996576958356115
 21
89.8785056901956949
 31
0.0
  0
POLYLINE
  5
28C9D
  8
0
  6
BYBLOCK
 62
     0
 66
     1
 10
0.0
 20
0.0
 30
0.0
 70
     1
 40
0.2
 41
0.2
  0
VERTEX
  5
28E85
  8
0
  6
BYBLOCK
 62
     0
 10
204.6996576958356115
 20
83.0505476721085643
 30
0.0
 42
1.0
  0
VERTEX
  5
28E86
  8
0
  6
BYBLOCK
 62
     0
 10
204.6996576958356115
 20
82.8505476721085756
 30
0.0
 42
1.0
  0
SEQEND
  5
28E87
  8
0
  6
BYBLOCK
 62
     0
  0
LINE
  5
28C9E
  8
0
  6
BYBLOCK
 62
     0
 10
204.6996576958356115
 20
83.150547672108587
 30
0.0
 11
204.6996576958356115
 21
83.3505476721085756
 31
0.0
  0
TEXT
  5
28C9F
  8
寸法
 62
     2
 10
204.0746576958356115
 20
84.6145266811520713
 30
0.0
 40
2.399999999999999
  1
22
 50
90.0
  0
POLYLINE
  5
28CA0
  8
0
  6
BYBLOCK
 62
     0
 66
     1
 10
0.0
 20
0.0
 30
0.0
 70
     1
 40
0.2000000000000001
 41
0.2000000000000001
  0
VERTEX
  5
28E88
  8
0
  6
BYBLOCK
 62
     0
 10
204.6996576958360095
 20
82.8505476721085756
 30
0.0
 42
1.0
  0
VERTEX
  5
28E89
  8
0
  6
BYBLOCK
 62
     0
 10
204.6996576958360095
 20
83.0505476721085643
 30
0.0
 42
1.0
  0
SEQEND
  5
28E8A
  8
0
  6
BYBLOCK
 62
     0
  0
LINE
  5
28CA1
  8
0
  6
BYBLOCK
 62
     0
 10
204.6996576958360095
 20
82.7505476721085671
 30
0.0
 11
204.6996576958360095
 21
82.5505476721085643
 31
0.0
  0
POLYLINE
  5
28CA2
  8
0
  6
BYBLOCK
 62
     0
 66
     1
 10
0.0
 20
0.0
 30
0.0
 70
     1
 40
0.2
 41
0.2
  0
VERTEX
  5
28E8B
  8
0
  6
BYBLOCK
 62
     0
 10
204.6996576958360095
 20
62.952637438594877
 30
0.0
 42
1.0
  0
VERTEX
  5
28E8C
  8
0
  6
BYBLOCK
 62
     0
 10
204.6996576958360095
 20
62.7526374385948671
 30
0.0
 42
1.0
  0
SEQEND
  5
28E8D
  8
0
  6
BYBLOCK
 62
     0
  0
LINE
  5
28CA3
  8
0
  6
BYBLOCK
 62
     0
 10
204.6996576958360095
 20
63.0526374385948714
 30
0.0
 11
204.6996576958360095
 21
63.2526374385948671
 31
0.0
  0
TEXT
  5
28CA4
  8
寸法
 62
     2
 10
204.0746576958360095
 20
71.1015925553516439
 30
0.0
 40
2.399999999999999
  1
60
 50
90.0
  0
POLYLINE
  5
28CA5
  8
0
  6
BYBLOCK
 62
     0
 66
     1
 10
0.0
 20
0.0
 30
0.0
 70
     1
 40
0.2000000000000001
 41
0.2000000000000001
  0
VERTEX
  5
28E8E
  8
0
  6
BYBLOCK
 62
     0
 10
204.6996576958364074
 20
62.7526374385948671
 30
0.0
 42
1.0
  0
VERTEX
  5
28E8F
  8
0
  6
BYBLOCK
 62
     0
 10
204.6996576958364074
 20
62.952637438594877
 30
0.0
 42
1.0
  0
SEQEND
  5
28E90
  8
0
  6
BYBLOCK
 62
     0
  0
LINE
  5
28CA6
  8
0
  6
BYBLOCK
 62
     0
 10
204.6996576958364074
 20
62.6526374385948728
 30
0.0
 11
204.6996576958364074
 21
62.452637438594877
 31
0.0
  0
POLYLINE
  5
28CA7
  8
0
  6
BYBLOCK
 62
     0
 66
     1
 10
0.0
 20
0.0
 30
0.0
 70
     1
 40
0.2
 41
0.2
  0
VERTEX
  5
28E91
  8
0
  6
BYBLOCK
 62
     0
 10
204.6996576958364074
 20
50.2863813862871893
 30
0.0
 42
1.0
  0
VERTEX
  5
28E92
  8
0
  6
BYBLOCK
 62
     0
 10
204.6996576958364074
 20
50.0863813862871794
 30
0.0
 42
1.0
  0
SEQEND
  5
28E93
  8
0
  6
BYBLOCK
 62
     0
  0
LINE
  5
28CA8
  8
0
  6
BYBLOCK
 62
     0
 10
204.6996576958364074
 20
50.3863813862871908
 30
0.0
 11
204.6996576958364074
 21
50.5863813862871865
 31
0.0
  0
TEXT
  5
28CA9
  8
寸法
 62
     2
 10
204.0746576958364074
 20
54.5195094124409607
 30
0.0
 40
2.399999999999999
  1
38
 50
90.0
  0
POLYLINE
  5
28CAA
  8
0
  6
BYBLOCK
 62
     0
 66
     1
 10
0.0
 20
0.0
 30
0.0
 70
     1
 40
0.2
 41
0.2
  0
VERTEX
  5
28E94
  8
0
  6
BYBLOCK
 62
     0
 10
51.3851498580700792
 20
33.7608141834818412
 30
0.0
 42
1.0
  0
VERTEX
  5
28E95
  8
0
  6
BYBLOCK
 62
     0
 10
51.1851498580700692
 20
33.7608141834818412
 30
0.0
 42
1.0
  0
SEQEND
  5
28E96
  8
0
  6
BYBLOCK
 62
     0
  0
LINE
  5
28CAB
  8
0
  6
BYBLOCK
 62
     0
 10
51.4851498580700806
 20
33.7608141834818412
 30
0.0
 11
51.6851498580700692
 21
33.7608141834818412
 31
0.0
  0
POLYLINE
  5
28CAC
  8
0
  6
BYBLOCK
 62
     0
 66
     1
 10
0.0
 20
0.0
 30
0.0
 70
     1
 40
0.2
 41
0.2
  0
VERTEX
  5
28E97
  8
0
  6
BYBLOCK
 62
     0
 10
50.4851498580700309
 20
33.7608141834818412
 30
0.0
 42
1.0
  0
VERTEX
  5
28E98
  8
0
  6
BYBLOCK
 62
     0
 10
50.6851498580700266
 20
33.7608141834818412
 30
0.0
 42
1.0
  0
SEQEND
  5
28E99
  8
0
  6
BYBLOCK
 62
     0
  0
LINE
  5
28CAD
  8
0
  6
BYBLOCK
 62
     0
 10
50.3851498580700294
 20
33.7608141834818412
 30
0.0
 11
50.1851498580700266
 21
33.7608141834818412
 31
0.0
  0
TEXT
  5
28CAE
  8
寸法
 62
     2
 10
47.5601498580700266
 20
30.735814183481839
 30
0.0
 40
2.399999999999999
  1
7
  0
POLYLINE
  5
28CAF
  8
0
  6
BYBLOCK
 62
     0
 66
     1
 10
0.0
 20
0.0
 30
0.0
 70
     1
 40
0.2
 41
0.2
  0
VERTEX
  5
28E9A
  8
0
  6
BYBLOCK
 62
     0
 10
51.3851498580700792
 20
33.7608141834818412
 30
0.0
 42
1.0
  0
VERTEX
  5
28E9B
  8
0
  6
BYBLOCK
 62
     0
 10
51.1851498580700692
 20
33.7608141834818412
 30
0.0
 42
1.0
  0
SEQEND
  5
28E9C
  8
0
  6
BYBLOCK
 62
     0
  0
LINE
  5
28CB0
  8
0
  6
BYBLOCK
 62
     0
 10
51.4851498580700806
 20
33.7608141834818412
 30
0.0
 11
51.6851498580700692
 21
33.7608141834818412
 31
0.0
  0
POLYLINE
  5
28CB1
  8
0
  6
BYBLOCK
 62
     0
 66
     1
 10
0.0
 20
0.0
 30
0.0
 70
     1
 40
0.2
 41
0.2
  0
VERTEX
  5
28E9D
  8
0
  6
BYBLOCK
 62
     0
 10
95.1851498580700763
 20
33.7608141834818412
 30
0.0
 42
1.0
  0
VERTEX
  5
28E9E
  8
0
  6
BYBLOCK
 62
     0
 10
95.385149858070065
 20
33.7608141834818412
 30
0.0
 42
1.0
  0
SEQEND
  5
28E9F
  8
0
  6
BYBLOCK
 62
     0
  0
LINE
  5
28CB2
  8
0
  6
BYBLOCK
 62
     0
 10
95.0851498580700678
 20
33.7608141834818412
 30
0.0
 11
94.885149858070065
 21
33.7608141834818412
 31
0.0
  0
TEXT
  5
28CB3
  8
寸法
 62
     2
 10
70.2851498580700706
 20
30.735814183481839
 30
0.0
 40
2.399999999999999
  1
440
  0
POLYLINE
  5
28CB4
  8
0
  6
BYBLOCK
 62
     0
 66
     1
 10
0.0
 20
0.0
 30
0.0
 70
     1
 40
0.2
 41
0.2
  0
VERTEX
  5
28EA0
  8
0
  6
BYBLOCK
 62
     0
 10
95.1851498580700763
 20
33.7608141834818412
 30
0.0
 42
1.0
  0
VERTEX
  5
28EA1
  8
0
  6
BYBLOCK
 62
     0
 10
95.385149858070065
 20
33.7608141834818412
 30
0.0
 42
1.0
  0
SEQEND
  5
28EA2
  8
0
  6
BYBLOCK
 62
     0
  0
LINE
  5
28CB5
  8
0
  6
BYBLOCK
 62
     0
 10
95.0851498580700678
 20
33.7608141834818412
 30
0.0
 11
94.885149858070065
 21
33.7608141834818412
 31
0.0
  0
POLYLINE
  5
28CB6
  8
0
  6
BYBLOCK
 62
     0
 66
     1
 10
0.0
 20
0.0
 30
0.0
 70
     1
 40
0.2
 41
0.2
  0
VERTEX
  5
28EA3
  8
0
  6
BYBLOCK
 62
     0
 10
96.0851498580701247
 20
33.7608141834818412
 30
0.0
 42
1.0
  0
VERTEX
  5
28EA4
  8
0
  6
BYBLOCK
 62
     0
 10
95.8851498580701218
 20
33.7608141834818412
 30
0.0
 42
1.0
  0
SEQEND
  5
28EA5
  8
0
  6
BYBLOCK
 62
     0
  0
LINE
  5
28CB7
  8
0
  6
BYBLOCK
 62
     0
 10
96.185149858070119
 20
33.7608141834818412
 30
0.0
 11
96.385149858070136
 21
33.7608141834818412
 31
0.0
  0
TEXT
  5
28CB8
  8
寸法
 62
     2
 10
97.4101498580701133
 20
30.735814183481839
 30
0.0
 40
2.399999999999999
  1
7
  0
POLYLINE
  5
28CB9
  8
0
  6
BYBLOCK
 62
     0
 66
     1
 10
0.0
 20
0.0
 30
0.0
 70
     1
 40
0.2
 41
0.2
  0
VERTEX
  5
28EA6
  8
0
  6
BYBLOCK
 62
     0
 10
51.3851498580700792
 20
41.6347234785705993
 30
0.0
 42
1.0
  0
VERTEX
  5
28EA7
  8
0
  6
BYBLOCK
 62
     0
 10
51.1851498580700692
 20
41.6347234785705993
 30
0.0
 42
1.0
  0
SEQEND
  5
28EA8
  8
0
  6
BYBLOCK
 62
     0
  0
LINE
  5
28CBA
  8
0
  6
BYBLOCK
 62
     0
 10
51.4851498580700806
 20
41.6347234785705993
 30
0.0
 11
51.6851498580700692
 21
41.6347234785705993
 31
0.0
  0
POLYLINE
  5
28CBB
  8
0
  6
BYBLOCK
 62
     0
 66
     1
 10
0.0
 20
0.0
 30
0.0
 70
     1
 40
0.2
 41
0.2
  0
VERTEX
  5
28EA9
  8
0
  6
BYBLOCK
 62
     0
 10
56.9851498580700806
 20
41.6347234785705993
 30
0.0
 42
1.0
  0
VERTEX
  5
28EAA
  8
0
  6
BYBLOCK
 62
     0
 10
57.1851498580700905
 20
41.6347234785705993
 30
0.0
 42
1.0
  0
SEQEND
  5
28EAB
  8
0
  6
BYBLOCK
 62
     0
  0
LINE
  5
28CBC
  8
0
  6
BYBLOCK
 62
     0
 10
56.8851498580700792
 20
41.6347234785705993
 30
0.0
 11
56.6851498580700905
 21
41.6347234785705993
 31
0.0
  0
TEXT
  5
28CBD
  8
寸法
 62
     2
 10
52.6851498580700905
 20
39.2097234785706092
 30
0.0
 40
1.8
  1
58
  0
POLYLINE
  5
28CBE
  8
0
  6
BYBLOCK
 62
     0
 66
     1
 10
0.0
 20
0.0
 30
0.0
 70
     1
 40
0.2
 41
0.2
  0
VERTEX
  5
28EAC
  8
0
  6
BYBLOCK
 62
     0
 10
57.1851498580700905
 20
41.6347234785705993
 30
0.0
 42
1.0
  0
VERTEX
  5
28EAD
  8
0
  6
BYBLOCK
 62
     0
 10
56.9851498580700806
 20
41.6347234785705993
 30
0.0
 42
1.0
  0
SEQEND
  5
28EAE
  8
0
  6
BYBLOCK
 62
     0
  0
LINE
  5
28CBF
  8
0
  6
BYBLOCK
 62
     0
 10
57.285149858070092
 20
41.6347234785705993
 30
0.0
 11
57.4851498580700877
 21
41.6347234785705993
 31
0.0
  0
POLYLINE
  5
28CC0
  8
0
  6
BYBLOCK
 62
     0
 66
     1
 10
0.0
 20
0.0
 30
0.0
 70
     1
 40
0.2
 41
0.2
  0
VERTEX
  5
28EAF
  8
0
  6
BYBLOCK
 62
     0
 10
73.9851498580700735
 20
41.6347234785705993
 30
0.0
 42
1.0
  0
VERTEX
  5
28EB0
  8
0
  6
BYBLOCK
 62
     0
 10
74.1851498580700763
 20
41.6347234785705993
 30
0.0
 42
1.0
  0
SEQEND
  5
28EB1
  8
0
  6
BYBLOCK
 62
     0
  0
LINE
  5
28CC1
  8
0
  6
BYBLOCK
 62
     0
 10
73.8851498580700792
 20
41.6347234785705993
 30
0.0
 11
73.6851498580700763
 21
41.6347234785705993
 31
0.0
  0
TEXT
  5
28CC2
  8
寸法
 62
     2
 10
63.6351498580700721
 20
39.2097234785706092
 30
0.0
 40
1.8
  1
170
  0
POLYLINE
  5
28CC3
  8
0
  6
BYBLOCK
 62
     0
 66
     1
 10
0.0
 20
0.0
 30
0.0
 70
     1
 40
0.2
 41
0.2
  0
VERTEX
  5
28EB2
  8
0
  6
BYBLOCK
 62
     0
 10
73.9851498580700735
 20
41.5767779652176728
 30
0.0
 42
1.0
  0
VERTEX
  5
28EB3
  8
0
  6
BYBLOCK
 62
     0
 10
74.1851498580700763
 20
41.5767779652176728
 30
0.0
 42
1.0
  0
SEQEND
  5
28EB4
  8
0
  6
BYBLOCK
 62
     0
  0
LINE
  5
28CC4
  8
0
  6
BYBLOCK
 62
     0
 10
73.8851498580700792
 20
41.5767779652176728
 30
0.0
 11
73.6851498580700763
 21
41.5767779652176728
 31
0.0
  0
POLYLINE
  5
28CC5
  8
0
  6
BYBLOCK
 62
     0
 66
     1
 10
0.0
 20
0.0
 30
0.0
 70
     1
 40
0.2
 41
0.2
  0
VERTEX
  5
28EB5
  8
0
  6
BYBLOCK
 62
     0
 10
75.9851498580700877
 20
41.5767779652176728
 30
0.0
 42
1.0
  0
VERTEX
  5
28EB6
  8
0
  6
BYBLOCK
 62
     0
 10
75.7851498580700991
 20
41.5767779652176728
 30
0.0
 42
1.0
  0
SEQEND
  5
28EB7
  8
0
  6
BYBLOCK
 62
     0
  0
LINE
  5
28CC6
  8
0
  6
BYBLOCK
 62
     0
 10
76.0851498580700962
 20
41.5767779652176728
 30
0.0
 11
76.2851498580700991
 21
41.5767779652176728
 31
0.0
  0
TEXT
  5
28CC7
  8
寸法
 62
     2
 10
73.7851498580700849
 20
39.1517779652176685
 30
0.0
 40
1.8
  1
18
  0
POLYLINE
  5
28CC8
  8
0
  6
BYBLOCK
 62
     0
 66
     1
 10
0.0
 20
0.0
 30
0.0
 70
     1
 40
0.2
 41
0.2
  0
VERTEX
  5
28EB8
  8
0
  6
BYBLOCK
 62
     0
 10
75.9851498580700877
 20
41.6347234785705993
 30
0.0
 42
1.0
  0
VERTEX
  5
28EB9
  8
0
  6
BYBLOCK
 62
     0
 10
75.7851498580700991
 20
41.6347234785705993
 30
0.0
 42
1.0
  0
SEQEND
  5
28EBA
  8
0
  6
BYBLOCK
 62
     0
  0
LINE
  5
28CC9
  8
0
  6
BYBLOCK
 62
     0
 10
76.0851498580700962
 20
41.6347234785705993
 30
0.0
 11
76.2851498580700991
 21
41.6347234785705993
 31
0.0
  0
POLYLINE
  5
28CCA
  8
0
  6
BYBLOCK
 62
     0
 66
     1
 10
0.0
 20
0.0
 30
0.0
 70
     1
 40
0.2
 41
0.2
  0
VERTEX
  5
28EBB
  8
0
  6
BYBLOCK
 62
     0
 10
92.7851498580700991
 20
41.6347234785705993
 30
0.0
 42
1.0
  0
VERTEX
  5
28EBC
  8
0
  6
BYBLOCK
 62
     0
 10
92.9851498580700735
 20
41.6347234785705993
 30
0.0
 42
1.0
  0
SEQEND
  5
28EBD
  8
0
  6
BYBLOCK
 62
     0
  0
LINE
  5
28CCB
  8
0
  6
BYBLOCK
 62
     0
 10
92.6851498580700905
 20
41.6347234785705993
 30
0.0
 11
92.4851498580700877
 21
41.6347234785705993
 31
0.0
  0
TEXT
  5
28CCC
  8
寸法
 62
     2
 10
82.4351498580700763
 20
39.2097234785706092
 30
0.0
 40
1.8
  1
170
  0
POLYLINE
  5
28CCD
  8
0
  6
BYBLOCK
 62
     0
 66
     1
 10
0.0
 20
0.0
 30
0.0
 70
     1
 40
0.2
 41
0.2
  0
VERTEX
  5
28EBE
  8
0
  6
BYBLOCK
 62
     0
 10
92.9851498580700735
 20
41.6347234785705993
 30
0.0
 42
1.0
  0
VERTEX
  5
28EBF
  8
0
  6
BYBLOCK
 62
     0
 10
92.7851498580700991
 20
41.6347234785705993
 30
0.0
 42
1.0
  0
SEQEND
  5
28EC0
  8
0
  6
BYBLOCK
 62
     0
  0
LINE
  5
28CCE
  8
0
  6
BYBLOCK
 62
     0
 10
93.0851498580700962
 20
41.6347234785705993
 30
0.0
 11
93.2851498580700849
 21
41.6347234785705993
 31
0.0
  0
POLYLINE
  5
28CCF
  8
0
  6
BYBLOCK
 62
     0
 66
     1
 10
0.0
 20
0.0
 30
0.0
 70
     1
 40
0.2
 41
0.2
  0
VERTEX
  5
28EC1
  8
0
  6
BYBLOCK
 62
     0
 10
95.1851498580700763
 20
41.6347234785705993
 30
0.0
 42
1.0
  0
VERTEX
  5
28EC2
  8
0
  6
BYBLOCK
 62
     0
 10
95.385149858070065
 20
41.6347234785705993
 30
0.0
 42
1.0
  0
SEQEND
  5
28EC3
  8
0
  6
BYBLOCK
 62
     0
  0
LINE
  5
28CD0
  8
0
  6
BYBLOCK
 62
     0
 10
95.0851498580700678
 20
41.6347234785705993
 30
0.0
 11
94.885149858070065
 21
41.6347234785705993
 31
0.0
  0
TEXT
  5
28CD1
  8
本体1
 62
     2
 10
92.5851498580700962
 20
39.2097234785706092
 30
0.0
 40
1.8
  1
24
  0
POLYLINE
  5
28CD2
  8
0
  6
BYBLOCK
 62
     0
 66
     1
 10
0.0
 20
0.0
 30
0.0
 70
     1
 40
0.2000000000000001
 41
0.2000000000000001
  0
VERTEX
  5
28EC4
  8
0
  6
BYBLOCK
 62
     0
 10
45.7621347283867976
 20
90.5789465900679147
 30
0.0
 42
1.0
  0
VERTEX
  5
28EC5
  8
0
  6
BYBLOCK
 62
     0
 10
45.7621347283867976
 20
90.7789465900679033
 30
0.0
 42
1.0
  0
SEQEND
  5
28EC6
  8
0
  6
BYBLOCK
 62
     0
  0
LINE
  5
28CD3
  8
0
  6
BYBLOCK
 62
     0
 10
45.7621347283867976
 20
90.4789465900679062
 30
0.0
 11
45.7621347283867976
 21
90.2789465900679033
 31
0.0
  0
POLYLINE
  5
28CD4
  8
0
  6
BYBLOCK
 62
     0
 66
     1
 10
0.0
 20
0.0
 30
0.0
 70
     1
 40
0.2
 41
0.2
  0
VERTEX
  5
28EC7
  8
0
  6
BYBLOCK
 62
     0
 10
45.7621347283867976
 20
84.7789465900679033
 30
0.0
 42
1.0
  0
VERTEX
  5
28EC8
  8
0
  6
BYBLOCK
 62
     0
 10
45.7621347283867976
 20
84.5789465900679147
 30
0.0
 42
1.0
  0
SEQEND
  5
28EC9
  8
0
  6
BYBLOCK
 62
     0
  0
LINE
  5
28CD5
  8
0
  6
BYBLOCK
 62
     0
 10
45.7621347283867976
 20
84.8789465900679119
 30
0.0
 11
45.7621347283867976
 21
85.0789465900679147
 31
0.0
  0
TEXT
  5
28CD6
  8
寸法
 62
     2
 10
45.1371347283868189
 20
86.5539465900678806
 30
0.0
 40
1.5
  1
60
 50
90.0
  0
POLYLINE
  5
28CD7
  8
0
  6
BYBLOCK
 62
     0
 66
     1
 10
0.0
 20
0.0
 30
0.0
 70
     1
 40
0.2000000000000001
 41
0.2000000000000001
  0
VERTEX
  5
28ECA
  8
0
  6
BYBLOCK
 62
     0
 10
45.7621347283868687
 20
84.5789465900679147
 30
0.0
 42
1.0
  0
VERTEX
  5
28ECB
  8
0
  6
BYBLOCK
 62
     0
 10
45.7621347283868687
 20
84.7789465900679033
 30
0.0
 42
1.0
  0
SEQEND
  5
28ECC
  8
0
  6
BYBLOCK
 62
     0
  0
LINE
  5
28CD8
  8
0
  6
BYBLOCK
 62
     0
 10
45.7621347283868687
 20
84.4789465900679062
 30
0.0
 11
45.7621347283868687
 21
84.2789465900679033
 31
0.0
  0
POLYLINE
  5
28CD9
  8
0
  6
BYBLOCK
 62
     0
 66
     1
 10
0.0
 20
0.0
 30
0.0
 70
     1
 40
0.2
 41
0.2
  0
VERTEX
  5
28ECD
  8
0
  6
BYBLOCK
 62
     0
 10
45.7621347283868687
 20
82.5789465900679147
 30
0.0
 42
1.0
  0
VERTEX
  5
28ECE
  8
0
  6
BYBLOCK
 62
     0
 10
45.7621347283868687
 20
82.3789465900679261
 30
0.0
 42
1.0
  0
SEQEND
  5
28ECF
  8
0
  6
BYBLOCK
 62
     0
  0
LINE
  5
28CDA
  8
0
  6
BYBLOCK
 62
     0
 10
45.7621347283868687
 20
82.6789465900679232
 30
0.0
 11
45.7621347283868687
 21
82.8789465900679261
 31
0.0
  0
TEXT
  5
28CDB
  8
寸法
 62
     2
 10
45.13713472838689
 20
82.3289465900678863
 30
0.0
 40
1.5
  1
22
 50
90.0
  0
POLYLINE
  5
28CDC
  8
0
  6
BYBLOCK
 62
     0
 66
     1
 10
0.0
 20
0.0
 30
0.0
 70
     1
 40
0.2000000000000001
 41
0.2000000000000001
  0
VERTEX
  5
28ED0
  8
0
  6
BYBLOCK
 62
     0
 10
45.7621347283869682
 20
51.7789465900678323
 30
0.0
 42
1.0
  0
VERTEX
  5
28ED1
  8
0
  6
BYBLOCK
 62
     0
 10
45.7621347283869682
 20
51.9789465900678422
 30
0.0
 42
1.0
  0
SEQEND
  5
28ED2
  8
0
  6
BYBLOCK
 62
     0
  0
LINE
  5
28CDD
  8
0
  6
BYBLOCK
 62
     0
 10
45.7621347283869682
 20
51.6789465900678309
 30
0.0
 11
45.7621347283869682
 21
51.4789465900678422
 31
0.0
  0
POLYLINE
  5
28CDE
  8
0
  6
BYBLOCK
 62
     0
 66
     1
 10
0.0
 20
0.0
 30
0.0
 70
     1
 40
0.2
 41
0.2
  0
VERTEX
  5
28ED3
  8
0
  6
BYBLOCK
 62
     0
 10
45.7621347283869682
 20
48.1789465900679303
 30
0.0
 42
1.0
  0
VERTEX
  5
28ED4
  8
0
  6
BYBLOCK
 62
     0
 10
45.7621347283869682
 20
47.9789465900679275
 30
0.0
 42
1.0
  0
SEQEND
  5
28ED5
  8
0
  6
BYBLOCK
 62
     0
  0
LINE
  5
28CDF
  8
0
  6
BYBLOCK
 62
     0
 10
45.7621347283869682
 20
48.2789465900679389
 30
0.0
 11
45.7621347283869682
 21
48.4789465900679417
 31
0.0
  0
TEXT
  5
28CE0
  8
寸法
 62
     2
 10
45.1371347283869824
 20
48.7289465900678564
 30
0.0
 40
1.5
  1
38
 50
90.0
  0
POLYLINE
  5
28CE1
  8
0
  6
BYBLOCK
 62
     0
 66
     1
 10
0.0
 20
0.0
 30
0.0
 70
     1
 40
0.2000000000000001
 41
0.2000000000000001
  0
VERTEX
  5
28ED6
  8
0
  6
BYBLOCK
 62
     0
 10
45.7621347283868474
 20
82.3789465900679261
 30
0.0
 42
1.0
  0
VERTEX
  5
28ED7
  8
0
  6
BYBLOCK
 62
     0
 10
45.7621347283868474
 20
82.5789465900679147
 30
0.0
 42
1.0
  0
SEQEND
  5
28ED8
  8
0
  6
BYBLOCK
 62
     0
  0
LINE
  5
28CE2
  8
0
  6
BYBLOCK
 62
     0
 10
45.7621347283868474
 20
82.2789465900679033
 30
0.0
 11
45.7621347283868474
 21
82.0789465900679147
 31
0.0
  0
POLYLINE
  5
28CE3
  8
0
  6
BYBLOCK
 62
     0
 66
     1
 10
0.0
 20
0.0
 30
0.0
 70
     1
 40
0.2
 41
0.2
  0
VERTEX
  5
28ED9
  8
0
  6
BYBLOCK
 62
     0
 10
45.7621347283868616
 20
76.5789465900679147
 30
0.0
 42
1.0
  0
VERTEX
  5
28EDA
  8
0
  6
BYBLOCK
 62
     0
 10
45.7621347283868616
 20
76.3789465900679261
 30
0.0
 42
1.0
  0
SEQEND
  5
28EDB
  8
0
  6
BYBLOCK
 62
     0
  0
LINE
  5
28CE4
  8
0
  6
BYBLOCK
 62
     0
 10
45.7621347283868616
 20
76.6789465900679232
 30
0.0
 11
45.7621347283868616
 21
76.8789465900679261
 31
0.0
  0
TEXT
  5
28CE5
  8
寸法
 62
     2
 10
45.1371347283868687
 20
78.353946590067892
 30
0.0
 40
1.5
  1
60
 50
90.0
  0
POLYLINE
  5
28CE6
  8
0
  6
BYBLOCK
 62
     0
 66
     1
 10
0.0
 20
0.0
 30
0.0
 70
     1
 40
0.2000000000000001
 41
0.2000000000000001
  0
VERTEX
  5
28EDC
  8
0
  6
BYBLOCK
 62
     0
 10
45.7621347283868971
 20
76.3789465900679261
 30
0.0
 42
1.0
  0
VERTEX
  5
28EDD
  8
0
  6
BYBLOCK
 62
     0
 10
45.7621347283868971
 20
76.5789465900679147
 30
0.0
 42
1.0
  0
SEQEND
  5
28EDE
  8
0
  6
BYBLOCK
 62
     0
  0
LINE
  5
28CE7
  8
0
  6
BYBLOCK
 62
     0
 10
45.7621347283868971
 20
76.2789465900679033
 30
0.0
 11
45.7621347283868971
 21
76.0789465900679147
 31
0.0
  0
POLYLINE
  5
28CE8
  8
0
  6
BYBLOCK
 62
     0
 66
     1
 10
0.0
 20
0.0
 30
0.0
 70
     1
 40
0.2
 41
0.2
  0
VERTEX
  5
28EDF
  8
0
  6
BYBLOCK
 62
     0
 10
45.7621347283868971
 20
74.378946590067855
 30
0.0
 42
1.0
  0
VERTEX
  5
28EE0
  8
0
  6
BYBLOCK
 62
     0
 10
45.7621347283868971
 20
74.1789465900678806
 30
0.0
 42
1.0
  0
SEQEND
  5
28EE1
  8
0
  6
BYBLOCK
 62
     0
  0
LINE
  5
28CE9
  8
0
  6
BYBLOCK
 62
     0
 10
45.7621347283868971
 20
74.4789465900678778
 30
0.0
 11
45.7621347283868971
 21
74.6789465900678806
 31
0.0
  0
TEXT
  5
28CEA
  8
寸法
 62
     2
 10
45.1371347283869113
 20
74.1289465900678692
 30
0.0
 40
1.5
  1
22
 50
90.0
  0
POLYLINE
  5
28CEB
  8
0
  6
BYBLOCK
 62
     0
 66
     1
 10
0.0
 20
0.0
 30
0.0
 70
     1
 40
0.2000000000000001
 41
0.2000000000000001
  0
VERTEX
  5
28EE2
  8
0
  6
BYBLOCK
 62
     0
 10
45.7621347283868616
 20
74.1789465900678806
 30
0.0
 42
1.0
  0
VERTEX
  5
28EE3
  8
0
  6
BYBLOCK
 62
     0
 10
45.7621347283868616
 20
74.378946590067855
 30
0.0
 42
1.0
  0
SEQEND
  5
28EE4
  8
0
  6
BYBLOCK
 62
     0
  0
LINE
  5
28CEC
  8
0
  6
BYBLOCK
 62
     0
 10
45.7621347283868616
 20
74.0789465900678721
 30
0.0
 11
45.7621347283868616
 21
73.8789465900678692
 31
0.0
  0
POLYLINE
  5
28CED
  8
0
  6
BYBLOCK
 62
     0
 66
     1
 10
0.0
 20
0.0
 30
0.0
 70
     1
 40
0.2
 41
0.2
  0
VERTEX
  5
28EE5
  8
0
  6
BYBLOCK
 62
     0
 10
45.7621347283868616
 20
68.3789465900678692
 30
0.0
 42
1.0
  0
VERTEX
  5
28EE6
  8
0
  6
BYBLOCK
 62
     0
 10
45.7621347283868616
 20
68.1789465900678806
 30
0.0
 42
1.0
  0
SEQEND
  5
28EE7
  8
0
  6
BYBLOCK
 62
     0
  0
LINE
  5
28CEE
  8
0
  6
BYBLOCK
 62
     0
 10
45.7621347283868616
 20
68.4789465900678636
 30
0.0
 11
45.7621347283868616
 21
68.6789465900678806
 31
0.0
  0
TEXT
  5
28CEF
  8
寸法
 62
     2
 10
45.1371347283868687
 20
70.1539465900678465
 30
0.0
 40
1.5
  1
60
 50
90.0
  0
POLYLINE
  5
28CF0
  8
0
  6
BYBLOCK
 62
     0
 66
     1
 10
0.0
 20
0.0
 30
0.0
 70
     1
 40
0.2000000000000001
 41
0.2000000000000001
  0
VERTEX
  5
28EE8
  8
0
  6
BYBLOCK
 62
     0
 10
45.7621347283868687
 20
68.1789465900678806
 30
0.0
 42
1.0
  0
VERTEX
  5
28EE9
  8
0
  6
BYBLOCK
 62
     0
 10
45.7621347283868687
 20
68.3789465900678692
 30
0.0
 42
1.0
  0
SEQEND
  5
28EEA
  8
0
  6
BYBLOCK
 62
     0
  0
LINE
  5
28CF1
  8
0
  6
BYBLOCK
 62
     0
 10
45.7621347283868687
 20
68.0789465900678721
 30
0.0
 11
45.7621347283868687
 21
67.8789465900678692
 31
0.0
  0
POLYLINE
  5
28CF2
  8
0
  6
BYBLOCK
 62
     0
 66
     1
 10
0.0
 20
0.0
 30
0.0
 70
     1
 40
0.2
 41
0.2
  0
VERTEX
  5
28EEB
  8
0
  6
BYBLOCK
 62
     0
 10
45.7621347283868687
 20
66.1789465900678806
 30
0.0
 42
1.0
  0
VERTEX
  5
28EEC
  8
0
  6
BYBLOCK
 62
     0
 10
45.7621347283868687
 20
65.978946590067892
 30
0.0
 42
1.0
  0
SEQEND
  5
28EED
  8
0
  6
BYBLOCK
 62
     0
  0
LINE
  5
28CF3
  8
0
  6
BYBLOCK
 62
     0
 10
45.7621347283868687
 20
66.2789465900678891
 30
0.0
 11
45.7621347283868687
 21
66.478946590067892
 31
0.0
  0
TEXT
  5
28CF4
  8
寸法
 62
     2
 10
45.13713472838689
 20
65.9289465900678522
 30
0.0
 40
1.5
  1
22
 50
90.0
  0
POLYLINE
  5
28CF5
  8
0
  6
BYBLOCK
 62
     0
 66
     1
 10
0.0
 20
0.0
 30
0.0
 70
     1
 40
0.2000000000000001
 41
0.2000000000000001
  0
VERTEX
  5
28EEE
  8
0
  6
BYBLOCK
 62
     0
 10
45.76213472838689
 20
65.978946590067892
 30
0.0
 42
1.0
  0
VERTEX
  5
28EEF
  8
0
  6
BYBLOCK
 62
     0
 10
45.76213472838689
 20
66.1789465900678806
 30
0.0
 42
1.0
  0
SEQEND
  5
28EF0
  8
0
  6
BYBLOCK
 62
     0
  0
LINE
  5
28CF6
  8
0
  6
BYBLOCK
 62
     0
 10
45.76213472838689
 20
65.8789465900678834
 30
0.0
 11
45.76213472838689
 21
65.6789465900678806
 31
0.0
  0
POLYLINE
  5
28CF7
  8
0
  6
BYBLOCK
 62
     0
 66
     1
 10
0.0
 20
0.0
 30
0.0
 70
     1
 40
0.2
 41
0.2
  0
VERTEX
  5
28EF1
  8
0
  6
BYBLOCK
 62
     0
 10
45.76213472838689
 20
60.1789465900678806
 30
0.0
 42
1.0
  0
VERTEX
  5
28EF2
  8
0
  6
BYBLOCK
 62
     0
 10
45.76213472838689
 20
59.9789465900678778
 30
0.0
 42
1.0
  0
SEQEND
  5
28EF3
  8
0
  6
BYBLOCK
 62
     0
  0
LINE
  5
28CF8
  8
0
  6
BYBLOCK
 62
     0
 10
45.76213472838689
 20
60.278946590067882
 30
0.0
 11
45.76213472838689
 21
60.4789465900678778
 31
0.0
  0
TEXT
  5
28CF9
  8
寸法
 62
     2
 10
45.1371347283868971
 20
61.9539465900678579
 30
0.0
 40
1.5
  1
60
 50
90.0
  0
POLYLINE
  5
28CFA
  8
0
  6
BYBLOCK
 62
     0
 66
     1
 10
0.0
 20
0.0
 30
0.0
 70
     1
 40
0.2000000000000001
 41
0.2000000000000001
  0
VERTEX
  5
28EF4
  8
0
  6
BYBLOCK
 62
     0
 10
45.7621347283869326
 20
59.9789465900678778
 30
0.0
 42
1.0
  0
VERTEX
  5
28EF5
  8
0
  6
BYBLOCK
 62
     0
 10
45.7621347283869326
 20
60.1789465900678806
 30
0.0
 42
1.0
  0
SEQEND
  5
28EF6
  8
0
  6
BYBLOCK
 62
     0
  0
LINE
  5
28CFB
  8
0
  6
BYBLOCK
 62
     0
 10
45.7621347283869326
 20
59.8789465900678692
 30
0.0
 11
45.7621347283869326
 21
59.6789465900678806
 31
0.0
  0
POLYLINE
  5
28CFC
  8
0
  6
BYBLOCK
 62
     0
 66
     1
 10
0.0
 20
0.0
 30
0.0
 70
     1
 40
0.2
 41
0.2
  0
VERTEX
  5
28EF7
  8
0
  6
BYBLOCK
 62
     0
 10
45.7621347283869326
 20
57.978946590067892
 30
0.0
 42
1.0
  0
VERTEX
  5
28EF8
  8
0
  6
BYBLOCK
 62
     0
 10
45.7621347283869326
 20
57.7789465900678891
 30
0.0
 42
1.0
  0
SEQEND
  5
28EF9
  8
0
  6
BYBLOCK
 62
     0
  0
LINE
  5
28CFD
  8
0
  6
BYBLOCK
 62
     0
 10
45.7621347283869326
 20
58.0789465900678934
 30
0.0
 11
45.7621347283869326
 21
58.2789465900678891
 31
0.0
  0
TEXT
  5
28CFE
  8
寸法
 62
     2
 10
45.1371347283869397
 20
57.7289465900678564
 30
0.0
 40
1.5
  1
22
 50
90.0
  0
POLYLINE
  5
28CFF
  8
0
  6
BYBLOCK
 62
     0
 66
     1
 10
0.0
 20
0.0
 30
0.0
 70
     1
 40
0.2000000000000001
 41
0.2000000000000001
  0
VERTEX
  5
28EFA
  8
0
  6
BYBLOCK
 62
     0
 10
45.7621347283869113
 20
57.7789465900678323
 30
0.0
 42
1.0
  0
VERTEX
  5
28EFB
  8
0
  6
BYBLOCK
 62
     0
 10
45.7621347283869113
 20
57.978946590067828
 30
0.0
 42
1.0
  0
SEQEND
  5
28EFC
  8
0
  6
BYBLOCK
 62
     0
  0
LINE
  5
28D00
  8
0
  6
BYBLOCK
 62
     0
 10
45.7621347283869113
 20
57.6789465900678309
 30
0.0
 11
45.7621347283869113
 21
57.478946590067828
 31
0.0
  0
POLYLINE
  5
28D01
  8
0
  6
BYBLOCK
 62
     0
 66
     1
 10
0.0
 20
0.0
 30
0.0
 70
     1
 40
0.2
 41
0.2
  0
VERTEX
  5
28EFD
  8
0
  6
BYBLOCK
 62
     0
 10
45.7621347283869113
 20
51.9789465900678422
 30
0.0
 42
1.0
  0
VERTEX
  5
28EFE
  8
0
  6
BYBLOCK
 62
     0
 10
45.7621347283869113
 20
51.7789465900678323
 30
0.0
 42
1.0
  0
SEQEND
  5
28EFF
  8
0
  6
BYBLOCK
 62
     0
  0
LINE
  5
28D02
  8
0
  6
BYBLOCK
 62
     0
 10
45.7621347283869113
 20
52.0789465900678294
 30
0.0
 11
45.7621347283869113
 21
52.2789465900678323
 31
0.0
  0
TEXT
  5
28D03
  8
寸法
 62
     2
 10
45.1371347283869184
 20
53.7539465900678124
 30
0.0
 40
1.5
  1
60
 50
90.0
  0
POLYLINE
  5
28D04
  8
0
  6
BYBLOCK
 62
     0
 66
     1
 10
0.0
 20
0.0
 30
0.0
 70
     1
 40
0.2000000000000001
 41
0.2000000000000001
  0
VERTEX
  5
28F00
  8
0
  6
BYBLOCK
 62
     0
 10
45.7621347283867621
 20
95.7789465900679602
 30
0.0
 42
1.0
  0
VERTEX
  5
28F01
  8
0
  6
BYBLOCK
 62
     0
 10
45.7621347283867621
 20
95.9789465900679488
 30
0.0
 42
1.0
  0
SEQEND
  5
28F02
  8
0
  6
BYBLOCK
 62
     0
  0
LINE
  5
28D05
  8
0
  6
BYBLOCK
 62
     0
 10
45.7621347283867621
 20
95.6789465900679374
 30
0.0
 11
45.7621347283867621
 21
95.4789465900679488
 31
0.0
  0
POLYLINE
  5
28D06
  8
0
  6
BYBLOCK
 62
     0
 66
     1
 10
0.0
 20
0.0
 30
0.0
 70
     1
 40
0.2
 41
0.2
  0
VERTEX
  5
28F03
  8
0
  6
BYBLOCK
 62
     0
 10
45.7621347283867621
 20
90.778946590067946
 30
0.0
 42
1.0
  0
VERTEX
  5
28F04
  8
0
  6
BYBLOCK
 62
     0
 10
45.7621347283867621
 20
90.5789465900679573
 30
0.0
 42
1.0
  0
SEQEND
  5
28F05
  8
0
  6
BYBLOCK
 62
     0
  0
LINE
  5
28D07
  8
0
  6
BYBLOCK
 62
     0
 10
45.7621347283867621
 20
90.8789465900679545
 30
0.0
 11
45.7621347283867621
 21
91.0789465900679431
 31
0.0
  0
TEXT
  5
28D08
  8
寸法
 62
     2
 10
45.1371347283867905
 20
91.7910258972788142
 30
0.0
 40
1.5
  1
52
 50
90.0
  0
POLYLINE
  5
28D09
  8
0
  6
BYBLOCK
 62
     0
 66
     1
 10
0.0
 20
0.0
 30
0.0
 70
     1
 40
0.3999999999999999
 41
0.3999999999999999
  0
VERTEX
  5
28F06
  8
0
  6
BYBLOCK
 62
     0
 10
52.8875263791592474
 20
108.486044910208804
 30
0.0
 42
1.0
  0
VERTEX
  5
28F07
  8
0
  6
BYBLOCK
 62
     0
 10
52.6341505482457634
 20
108.1765280474873947
 30
0.0
 42
1.0
  0
SEQEND
  5
28F08
  8
0
  6
BYBLOCK
 62
     0
  0
LINE
  5
28D0A
  8
0
  6
BYBLOCK
 62
     0
 10
53.0142142946160035
 20
108.6408033415694945
 30
0.0
 11
53.2675901255295017
 21
108.9503202042909038
 31
0.0
  0
LINE
  5
28D0B
  8
注釈
 10
53.2675901255295017
 20
108.9503202042909038
 30
0.0
 11
70.6988363400694482
 21
130.2438454083209081
 31
0.0
1001
ACAD
1000
DSTYLE
1002
{
1070
   147
1040
0.09
1070
    41
1040
0.8
1070
    42
1040
2.0
1070
    43
1040
0.35
1070
    44
1040
0.0
1070
    73
1070
     0
1070
    74
1070
     0
1070
    77
1070
     0
1070
    78
1070
     8
1070
   140
1040
2.399999999999999
1070
   144
1040
2.0
1070
   176
1070
     2
1070
   177
1070
     2
1070
   178
1070
     2
1070
   271
1070
     1
1070
   272
1070
     1
1070
   340
1005
2278D
1070
   341
1005
36B9
1070
   342
1005
36B9
1070
   371
1070
    -1
1070
   372
1070
    -1
1002
}
  0
POLYLINE
  5
28D0C
  8
0
  6
BYBLOCK
 62
     0
 66
     1
 10
0.0
 20
0.0
 30
0.0
 70
     1
 40
0.4000000000000001
 41
0.4000000000000001
  0
VERTEX
  5
28F09
  8
0
  6
BYBLOCK
 62
     0
 10
51.2519437668819435
 20
101.0402654427310978
 30
0.0
 42
1.0
  0
VERTEX
  5
28F0A
  8
0
  6
BYBLOCK
 62
     0
 10
50.9969082366763615
 20
100.7321147031040027
 30
0.0
 42
1.0
  0
SEQEND
  5
28F0B
  8
0
  6
BYBLOCK
 62
     0
  0
LINE
  5
28D0D
  8
0
  6
BYBLOCK
 62
     0
 10
51.3794615319847381
 20
101.194340812544695
 30
0.0
 11
51.6344970621903272
 21
101.5024915521719038
 31
0.0
  0
LINE
  5
28D0E
  8
注釈
 10
51.6344970621903272
 20
101.5024915521719038
 30
0.0
 11
70.5597962622124157
 21
124.3692856080840983
 31
0.0
1001
ACAD
1000
DSTYLE
1002
{
1070
   147
1040
0.09
1070
    41
1040
0.8
1070
    42
1040
2.0
1070
    43
1040
0.35
1070
    44
1040
0.0
1070
    73
1070
     0
1070
    74
1070
     0
1070
    77
1070
     0
1070
    78
1070
     8
1070
   140
1040
2.399999999999999
1070
   144
1040
2.0
1070
   176
1070
     2
1070
   177
1070
     2
1070
   178
1070
     2
1070
   271
1070
     1
1070
   272
1070
     1
1070
   340
1005
2278D
1070
   341
1005
36B9
1070
   342
1005
36B9
1070
   371
1070
    -1
1070
   372
1070
    -1
1002
}
  0
POLYLINE
  5
28D0F
  8
0
  6
BYBLOCK
 62
     0
 66
     1
 10
0.0
 20
0.0
 30
0.0
 70
     1
 40
0.4
 41
0.4
  0
VERTEX
  5
28F0C
  8
0
  6
BYBLOCK
 62
     0
 10
88.9697412161007435
 20
75.5919918965810069
 30
0.0
 42
1.0
  0
VERTEX
  5
28F0D
  8
0
  6
BYBLOCK
 62
     0
 10
88.7847867268381208
 20
75.2373204473472157
 30
0.0
 42
1.0
  0
SEQEND
  5
28F0E
  8
0
  6
BYBLOCK
 62
     0
  0
LINE
  5
28D10
  8
0
  6
BYBLOCK
 62
     0
 10
89.0622184607320548
 20
75.7693276211979168
 30
0.0
 11
89.2471729499946491
 21
76.123999070431708
 31
0.0
  0
LINE
  5
28D11
  8
注釈
 10
89.2471729499946491
 20
76.123999070431708
 30
0.0
 11
100.1643655356558043
 21
97.0589681612498367
 31
0.0
1001
ACAD
1000
DSTYLE
1002
{
1070
   147
1040
0.09
1070
    41
1040
0.8
1070
    42
1040
2.0
1070
    43
1040
0.35
1070
    44
1040
0.0
1070
    73
1070
     0
1070
    74
1070
     0
1070
    77
1070
     0
1070
    78
1070
     8
1070
   140
1040
2.399999999999999
1070
   144
1040
2.0
1070
   176
1070
     2
1070
   177
1070
     2
1070
   178
1070
     2
1070
   271
1070
     1
1070
   272
1070
     1
1070
   340
1005
2278D
1070
   341
1005
36B9
1070
   342
1005
36B9
1070
   371
1070
    -1
1070
   372
1070
    -1
1002
}
  0
POLYLINE
  5
28D12
  8
0
  6
BYBLOCK
 62
     0
 66
     1
 10
0.0
 20
0.0
 30
0.0
 70
     1
 40
0.4
 41
0.4
  0
VERTEX
  5
28F0F
  8
0
  6
BYBLOCK
 62
     0
 10
86.1630710486391962
 20
54.7988326844606419
 30
0.0
 42
1.0
  0
VERTEX
  5
28F10
  8
0
  6
BYBLOCK
 62
     0
 10
85.9781165593765593
 20
54.4441612352268365
 30
0.0
 42
1.0
  0
SEQEND
  5
28F11
  8
0
  6
BYBLOCK
 62
     0
  0
LINE
  5
28D13
  8
0
  6
BYBLOCK
 62
     0
 10
86.2555482932704791
 20
54.9761684090775304
 30
0.0
 11
86.4405027825331018
 21
55.330839858311343
 31
0.0
  0
LINE
  5
28D14
  8
注釈
 10
86.4405027825331018
 20
55.330839858311343
 30
0.0
 11
103.8007224571242944
 21
88.6210524698138897
 31
0.0
1001
ACAD
1000
DSTYLE
1002
{
1070
   147
1040
0.09
1070
    41
1040
0.8
1070
    42
1040
2.0
1070
    43
1040
0.35
1070
    44
1040
0.0
1070
    73
1070
     0
1070
    74
1070
     0
1070
    77
1070
     0
1070
    78
1070
     8
1070
   140
1040
2.399999999999999
1070
   144
1040
2.0
1070
   176
1070
     2
1070
   177
1070
     2
1070
   178
1070
     2
1070
   271
1070
     1
1070
   272
1070
     1
1070
   340
1005
2278D
1070
   341
1005
36B9
1070
   342
1005
36B9
1070
   371
1070
    -1
1070
   372
1070
    -1
1002
}
  0
POLYLINE
  5
28D15
  8
0
  6
BYBLOCK
 62
     0
 66
     1
 10
0.0
 20
0.0
 30
0.0
 70
     1
 40
0.4
 41
0.4
  0
VERTEX
  5
28F12
  8
0
  6
BYBLOCK
 62
     0
 10
76.1305087469768438
 20
106.6134652491057011
 30
0.0
 42
1.0
  0
VERTEX
  5
28F13
  8
0
  6
BYBLOCK
 62
     0
 10
75.8612238120437468
 20
106.3176855611314977
 30
0.0
 42
1.0
  0
SEQEND
  5
28F14
  8
0
  6
BYBLOCK
 62
     0
  0
LINE
  5
28D16
  8
0
  6
BYBLOCK
 62
     0
 10
76.2651512144433781
 20
106.7613550930927033
 30
0.0
 11
76.5344361493764751
 21
107.0571347810669067
 31
0.0
  0
LINE
  5
28D17
  8
注釈
 10
76.5344361493764751
 20
107.0571347810669067
 30
0.0
 11
83.2758215446552583
 21
114.4618002861182049
 31
0.0
1001
ACAD
1000
DSTYLE
1002
{
1070
   147
1040
0.09
1070
    41
1040
0.8
1070
    42
1040
2.0
1070
    43
1040
0.35
1070
    44
1040
0.0
1070
    73
1070
     0
1070
    74
1070
     0
1070
    77
1070
     0
1070
    78
1070
     8
1070
   140
1040
2.399999999999999
1070
   144
1040
2.0
1070
   176
1070
     2
1070
   177
1070
     2
1070
   178
1070
     2
1070
   271
1070
     1
1070
   272
1070
     1
1070
   340
1005
2278D
1070
   341
1005
36B9
1070
   342
1005
36B9
1070
   371
1070
    -1
1070
   372
1070
    -1
1002
}
  0
POLYLINE
  5
28D18
  8
0
  6
BYBLOCK
 62
     0
 66
     1
 10
0.0
 20
0.0
 30
0.0
 70
     1
 40
0.4000000000000001
 41
0.4000000000000001
  0
VERTEX
  5
28F15
  8
0
  6
BYBLOCK
 62
     0
 10
209.7403140132099111
 20
50.648128788145037
 30
0.0
 42
1.0
  0
VERTEX
  5
28F16
  8
0
  6
BYBLOCK
 62
     0
 10
209.4852784830042935
 20
50.3399780485178994
 30
0.0
 42
1.0
  0
SEQEND
  5
28F17
  8
0
  6
BYBLOCK
 62
     0
  0
LINE
  5
28D19
  8
0
  6
BYBLOCK
 62
     0
 10
209.8678317783127056
 20
50.802204157958613
 30
0.0
 11
210.1228673085182947
 21
51.1103548975857507
 31
0.0
  0
LINE
  5
28D1A
  8
注釈
 10
210.1228673085182947
 20
51.1103548975857507
 30
0.0
 11
229.0481665085403904
 21
73.9771489534979878
 31
0.0
1001
ACAD
1000
DSTYLE
1002
{
1070
   147
1040
0.09
1070
    41
1040
0.8
1070
    42
1040
2.0
1070
    43
1040
0.35
1070
    44
1040
0.0
1070
    73
1070
     0
1070
    74
1070
     0
1070
    77
1070
     0
1070
    78
1070
     8
1070
   140
1040
2.399999999999999
1070
   144
1040
2.0
1070
   176
1070
     2
1070
   177
1070
     2
1070
   178
1070
     2
1070
   271
1070
     1
1070
   272
1070
     1
1070
   340
1005
2278D
1070
   341
1005
36B9
1070
   342
1005
36B9
1070
   371
1070
    -1
1070
   372
1070
    -1
1002
}
  0
POLYLINE
  5
28D1B
  8
0
  6
BYBLOCK
 62
     0
 66
     1
 10
0.0
 20
0.0
 30
0.0
 70
     1
 40
0.2000000000000001
 41
0.2000000000000001
  0
VERTEX
  5
28F18
  8
0
  6
BYBLOCK
 62
     0
 10
196.1199970238212984
 20
168.1820122932927006
 30
0.0
 42
1.0
  0
VERTEX
  5
28F19
  8
0
  6
BYBLOCK
 62
     0
 10
196.1199970238212984
 20
168.382012293292604
 30
0.0
 42
1.0
  0
SEQEND
  5
28F1A
  8
0
  6
BYBLOCK
 62
     0
  0
LINE
  5
28D1C
  8
0
  6
BYBLOCK
 62
     0
 10
196.1199970238212984
 20
168.0820122932925926
 30
0.0
 11
196.1199970238212984
 21
167.882012293292604
 31
0.0
  0
POLYLINE
  5
28D1D
  8
0
  6
BYBLOCK
 62
     0
 66
     1
 10
0.0
 20
0.0
 30
0.0
 70
     1
 40
0.2
 41
0.2
  0
VERTEX
  5
28F1B
  8
0
  6
BYBLOCK
 62
     0
 10
196.1199970238214121
 20
50.2863813862871893
 30
0.0
 42
1.0
  0
VERTEX
  5
28F1C
  8
0
  6
BYBLOCK
 62
     0
 10
196.1199970238214121
 20
50.0863813862871794
 30
0.0
 42
1.0
  0
SEQEND
  5
28F1D
  8
0
  6
BYBLOCK
 62
     0
  0
LINE
  5
28D1E
  8
0
  6
BYBLOCK
 62
     0
 10
196.1199970238214121
 20
50.3863813862871908
 30
0.0
 11
196.1199970238214121
 21
50.5863813862871865
 31
0.0
  0
TEXT
  5
28D1F
  8
寸法
 62
     2
 10
195.4949970238212984
 20
106.4341968397898057
 30
0.0
 40
2.399999999999999
  1
600
 50
90.0
  0
POLYLINE
  5
28D20
  8
0
  6
BYBLOCK
 62
     0
 66
     1
 10
0.0
 20
0.0
 30
0.0
 70
     1
 40
0.2000000000000001
 41
0.2000000000000001
  0
VERTEX
  5
28F1E
  8
0
  6
BYBLOCK
 62
     0
 10
38.8361657729445326
 20
107.9789465900679062
 30
0.0
 42
1.0
  0
VERTEX
  5
28F1F
  8
0
  6
BYBLOCK
 62
     0
 10
38.8361657729445326
 20
108.1789465900678948
 30
0.0
 42
1.0
  0
SEQEND
  5
28F20
  8
0
  6
BYBLOCK
 62
     0
  0
LINE
  5
28D21
  8
0
  6
BYBLOCK
 62
     0
 10
38.8361657729445326
 20
107.8789465900678977
 30
0.0
 11
38.8361657729445326
 21
107.6789465900678948
 31
0.0
  0
POLYLINE
  5
28D22
  8
0
  6
BYBLOCK
 62
     0
 66
     1
 10
0.0
 20
0.0
 30
0.0
 70
     1
 40
0.2
 41
0.2
  0
VERTEX
  5
28F21
  8
0
  6
BYBLOCK
 62
     0
 10
38.8361657729445398
 20
48.1789465900679303
 30
0.0
 42
1.0
  0
VERTEX
  5
28F22
  8
0
  6
BYBLOCK
 62
     0
 10
38.8361657729445398
 20
47.9789465900679204
 30
0.0
 42
1.0
  0
SEQEND
  5
28F23
  8
0
  6
BYBLOCK
 62
     0
  0
LINE
  5
28D23
  8
0
  6
BYBLOCK
 62
     0
 10
38.8361657729445398
 20
48.2789465900679176
 30
0.0
 11
38.8361657729445398
 21
48.4789465900679204
 31
0.0
  0
TEXT
  5
28D24
  8
寸法
 62
     2
 10
38.2111657729445469
 20
75.2789465900679033
 30
0.0
 40
2.399999999999999
  1
600
 50
90.0
  0
VIEWPORT
  5
151C
 67
     1
  8
0
 10
399.2286564563463003
 20
162.771779720877305
 30
0.0
 40
883.0760862546053431
 41
345.913915276449984
 68
     1
 69
     1
1001
ACAD
1000
MVIEW
1002
{
1070
    16
1010
0.0
1020
0.0
1030
0.0
1010
0.0
1020
0.0
1030
1.0
1040
0.0
1040
345.913915276449984
1040
399.2286564563463003
1040
162.771779720877305
1040
50.0
1040
0.0
1040
0.0
1070
     0
1070
  1000
1070
     1
1070
     1
1070
     0
1070
     0
1070
     0
1070
     0
1040
0.0
1040
0.0
1040
0.0
1040
10.0
1040
10.0
1040
10.0
1040
10.0
1070
     0
1002
{
1002
}
1002
}
  0
VIEWPORT
  5
1520
 67
     1
  8
図面枠
 10
145.3515106439589886
 20
101.8539978265762045
 30
0.0
 40
232.5624170303345011
 41
162.9663965225219044
 68
     2
 69
     2
1001
ACAD
1000
MVIEW
1002
{
1070
    16
1010
0.0
1020
0.0
1030
0.0
1010
0.0
1020
0.0
1030
1.0
1040
0.0
1040
213.5492957746479021
1040
148.4954684853967137
1040
105.0
1040
50.0
1040
0.0
1040
0.0
1070
     0
1070
  1000
1070
     1
1070
     3
1070
     0
1070
     0
1070
     0
1070
     0
1040
0.0
1040
0.0
1040
0.0
1040
10.0
1040
10.0
1040
10.0
1040
10.0
1070
     0
1002
{
1002
}
1002
}
  0
ENDSEC
  0
EOF
