  0
SECTION
  2
HEADER
  9
$ACADVER
  1
AC1009
  9
$INSBASE
 10
0.0
 20
0.0
 30
0.0
  9
$EXTMIN
 10
33.0260845194017705
 20
26.9887317130661302
 30
0.0
  9
$EXTMAX
 10
313.2505026676890907
 20
218.8059533489048079
 30
0.0
  9
$LIMMIN
 10
0.0
 20
0.0
  9
$LIMMAX
 10
297.0
 20
210.0
  9
$ORTHOMODE
 70
     1
  9
$REGENMODE
 70
     1
  9
$FILLMODE
 70
     1
  9
$QTEXTMODE
 70
     0
  9
$MIRRTEXT
 70
     1
  9
$DRAGMODE
 70
     2
  9
$LTSCALE
 40
1.0
  9
$OSMODE
 70
  4095
  9
$ATTMODE
 70
     1
  9
$TEXTSIZE
 40
2.5
  9
$TRACEWID
 40
1.0
  9
$TEXTSTYLE
  7
STANDARD
  9
$CLAYER
  8
寸法
  9
$CELTYPE
  6
BYLAYER
  9
$CECOLOR
 62
   256
  9
$DIMSCALE
 40
1.0
  9
$DIMASZ
 40
1.0
  9
$DIMEXO
 40
2.0
  9
$DIMDLI
 40
8.0
  9
$DIMRND
 40
0.0
  9
$DIMDLE
 40
0.0
  9
$DIMEXE
 40
0.0
  9
$DIMTP
 40
0.0
  9
$DIMTM
 40
0.0
  9
$DIMTXT
 40
3.0
  9
$DIMCEN
 40
2.5
  9
$DIMTSZ
 40
0.0
  9
$DIMTOL
 70
     0
  9
$DIMLIM
 70
     0
  9
$DIMTIH
 70
     0
  9
$DIMTOH
 70
     0
  9
$DIMSE1
 70
     0
  9
$DIMSE2
 70
     0
  9
$DIMTAD
 70
     2
  9
$DIMZIN
 70
     8
  9
$DIMBLK
  1
DOTSMALL
  9
$DIMASO
 70
     1
  9
$DIMSHO
 70
     1
  9
$DIMPOST
  1

  9
$DIMAPOST
  1

  9
$DIMALT
 70
     0
  9
$DIMALTD
 70
     3
  9
$DIMALTF
 40
0.03937007874016
  9
$DIMLFAC
 40
1.0
  9
$DIMTOFL
 70
     1
  9
$DIMTVP
 40
0.0
  9
$DIMTIX
 70
     0
  9
$DIMSOXD
 70
     0
  9
$DIMSAH
 70
     0
  9
$DIMBLK1
  1

  9
$DIMBLK2
  1

  9
$DIMSTYLE
  2
STANDARD
  9
$DIMCLRD
 70
   256
  9
$DIMCLRE
 70
   256
  9
$DIMCLRT
 70
   256
  9
$DIMTFAC
 40
1.0
  9
$DIMGAP
 40
0.625
  9
$LUNITS
 70
     2
  9
$LUPREC
 70
     2
  9
$SKETCHINC
 40
1.0
  9
$FILLETRAD
 40
0.5
  9
$AUNITS
 70
     0
  9
$AUPREC
 70
     1
  9
$MENU
  1
.
  9
$ELEVATION
 40
0.0
  9
$PELEVATION
 40
0.0
  9
$THICKNESS
 40
0.0
  9
$LIMCHECK
 70
     0
  9
$BLIPMODE
 70
     0
  9
$CHAMFERA
 40
10.0
  9
$CHAMFERB
 40
10.0
  9
$SKPOLY
 70
     0
  9
$TDCREATE
 40
2452318.6191435190849006
  9
$TDUPDATE
 40
2460476.7055439809337258
  9
$TDINDWG
 40
9.3941950809999994
  9
$TDUSRTIMER
 40
9.3941949653000005
  9
$USRTIMER
 70
     1
  9
$ANGBASE
 50
0.0
  9
$ANGDIR
 70
     0
  9
$PDMODE
 70
     3
  9
$PDSIZE
 40
0.0
  9
$PLINEWID
 40
0.0
  9
$COORDS
 70
     1
  9
$SPLFRAME
 70
     0
  9
$SPLINETYPE
 70
     6
  9
$SPLINESEGS
 70
     8
  9
$ATTDIA
 70
     1
  9
$ATTREQ
 70
     1
  9
$HANDLING
 70
     1
  9
$HANDSEED
  5
28D22
  9
$SURFTAB1
 70
     6
  9
$SURFTAB2
 70
     6
  9
$SURFTYPE
 70
     6
  9
$SURFU
 70
     6
  9
$SURFV
 70
     6
  9
$UCSNAME
  2

  9
$UCSORG
 10
0.0
 20
0.0
 30
0.0
  9
$UCSXDIR
 10
1.0
 20
0.0
 30
0.0
  9
$UCSYDIR
 10
0.0
 20
1.0
 30
0.0
  9
$PUCSNAME
  2

  9
$PUCSORG
 10
0.0
 20
0.0
 30
0.0
  9
$PUCSXDIR
 10
1.0
 20
0.0
 30
0.0
  9
$PUCSYDIR
 10
0.0
 20
1.0
 30
0.0
  9
$USERI1
 70
     0
  9
$USERI2
 70
     0
  9
$USERI3
 70
     0
  9
$USERI4
 70
     0
  9
$USERI5
 70
     0
  9
$USERR1
 40
0.0
  9
$USERR2
 40
0.0
  9
$USERR3
 40
0.0
  9
$USERR4
 40
0.0
  9
$USERR5
 40
0.0
  9
$WORLDVIEW
 70
     1
  9
$SHADEDGE
 70
     3
  9
$SHADEDIF
 70
    70
  9
$TILEMODE
 70
     1
  9
$MAXACTVP
 70
    64
  9
$PLIMCHECK
 70
     0
  9
$PEXTMIN
 10
29.0703021287918091
 20
20.3707995653152487
 30
0.0
  9
$PEXTMAX
 10
261.6327191591262817
 20
183.3371960878372136
 30
0.0
  9
$PLIMMIN
 10
-0.79376220703125
 20
-0.793749988079071
  9
$PLIMMAX
 10
296.2062377929686932
 20
209.2062500119209005
  9
$UNITMODE
 70
     0
  9
$VISRETAIN
 70
     1
  9
$PLINEGEN
 70
     0
  9
$PSLTSCALE
 70
     1
  0
ENDSEC
  0
SECTION
  2
TABLES
  0
TABLE
  2
VPORT
 70
     1
  0
VPORT
  2
*ACTIVE
 70
     0
 10
0.0
 20
0.0
 11
1.0
 21
1.0
 12
355.2109878897105091
 22
98.8076830463070337
 13
0.0
 23
0.0
 14
10.0
 24
10.0
 15
10.0
 25
10.0
 16
0.0
 26
0.0
 36
1.0
 17
0.0
 27
0.0
 37
0.0
 40
612.7893946428198433
 41
2.01231527093596
 42
50.0
 43
0.0
 44
0.0
 50
0.0
 51
0.0
 71
     0
 72
  1000
 73
     1
 74
     3
 75
     0
 76
     0
 77
     0
 78
     0
  0
ENDTAB
  0
TABLE
  2
LTYPE
 70
     4
  0
LTYPE
  2
CONTINUOUS
 70
     0
  3
Solid line
 72
    65
 73
     0
 40
0.0
  0
LTYPE
  2
PHANTOMX2
 70
     0
  3
Phantom (2x) ____________    ____    ____   _
 72
    65
 73
     6
 40
127.0
 49
63.5
 49
-12.6999999999999993
 49
12.6999999999999993
 49
-12.6999999999999993
 49
12.6999999999999993
 49
-12.6999999999999993
  0
LTYPE
  2
DIVIDE
 70
     0
  3
------      -      -      ------
 72
    65
 73
     6
 40
31.6200000000000117
 49
12.6999999999999993
 49
-6.2999999999999989
 49
0.01
 49
-6.2999999999999989
 49
0.01
 49
-6.2999999999999989
  0
LTYPE
  2
HIDDEN
 70
     0
  3
_ _ _ _ _ _ _ _ _ _ _ _ _ _ _ _ _ _ _ _ _ _ _
 72
    65
 73
     2
 40
0.375
 49
0.25
 49
-0.125
  0
ENDTAB
  0
TABLE
  2
LAYER
 70
    32
  0
LAYER
  2
0
 70
     0
 62
     7
  6
CONTINUOUS
  0
LAYER
  2
図面枠
 70
     0
 62
     7
  6
CONTINUOUS
  0
LAYER
  2
テキスト
 70
     0
 62
     3
  6
CONTINUOUS
  0
LAYER
  2
DEFPOINTS
 70
     0
 62
     7
  6
PHANTOMX2
  0
LAYER
  2
枠ライン
 70
     0
 62
     1
  6
CONTINUOUS
  0
LAYER
  2
枠文字
 70
     0
 62
     4
  6
CONTINUOUS
  0
LAYER
  2
注釈
 70
     0
 62
     2
  6
CONTINUOUS
  0
LAYER
  2
枠横ライン
 70
     0
 62
     9
  6
CONTINUOUS
  0
LAYER
  2
寸法
 70
     0
 62
     2
  6
CONTINUOUS
  0
LAYER
  2
シンボル
 70
     0
 62
     3
  6
CONTINUOUS
  0
LAYER
  2
表題欄
 70
     0
 62
     4
  6
CONTINUOUS
  0
LAYER
  2
PL2
 70
     0
 62
     2
  6
CONTINUOUS
  0
LAYER
  2
PL1
 70
     0
 62
     7
  6
CONTINUOUS
  0
LAYER
  2
ビス
 70
     0
 62
     5
  6
CONTINUOUS
  0
LAYER
  2
図面枠2
 70
     0
 62
   251
  6
CONTINUOUS
  0
LAYER
  2
PL3
 70
     0
 62
     3
  6
CONTINUOUS
  0
LAYER
  2
PL6
 70
     0
 62
     1
  6
CONTINUOUS
  0
LAYER
  2
PL9
 70
     0
 62
    30
  6
CONTINUOUS
  0
LAYER
  2
壁
 70
     0
 62
     6
  6
CONTINUOUS
  0
LAYER
  2
本体1
 70
     0
 62
     7
  6
CONTINUOUS
  0
LAYER
  2
本体2
 70
     0
 62
    11
  6
CONTINUOUS
  0
LAYER
  2
PL4
 70
     0
 62
    40
  6
CONTINUOUS
  0
LAYER
  2
LAYER_1
 70
     0
 62
     7
  6
CONTINUOUS
  0
LAYER
  2
ビス類
 70
     0
 62
     3
  6
CONTINUOUS
  0
LAYER
  2
PL11
 70
     0
 62
    11
  6
CONTINUOUS
  0
LAYER
  2
本体１
 70
     0
 62
     7
  6
CONTINUOUS
  0
LAYER
  2
本体２
 70
     0
 62
    11
  6
CONTINUOUS
  0
LAYER
  2
DIM
 70
     0
 62
     2
  6
CONTINUOUS
  0
LAYER
  2
_0-6_寸法レイヤ
 70
     0
 62
     7
  6
CONTINUOUS
  0
LAYER
  2
_0-7_作図レイヤ
 70
     0
 62
     7
  6
CONTINUOUS
  0
LAYER
  2
MC2
 70
     0
 62
     3
  6
HIDDEN
  0
LAYER
  2
_U_30EC_U_30A4_U_30E4_U_30
 70
     0
 62
     7
  6
CONTINUOUS
  0
ENDTAB
  0
TABLE
  2
STYLE
 70
     3
  0
STYLE
  2
STANDARD
 70
     0
 40
0.0
 41
1.0
 50
0.0
 71
     0
 42
2.5
  3
txt.shx
  4
extfont.shx
  0
STYLE
  2
游明朝
 70
     0
 40
0.0
 41
1.0
 50
0.0
 71
     0
 42
2.5
  3
txt
  4

  0
STYLE
  2
角ゴ
 70
     0
 40
0.0
 41
1.0
 50
0.0
 71
     0
 42
2.5
  3
txt.shx
  4
extfont.shx
  0
ENDTAB
  0
TABLE
  2
VIEW
 70
     0
  0
ENDTAB
  0
TABLE
  2
UCS
 70
     0
  0
ENDTAB
  0
TABLE
  2
APPID
 70
    26
  0
APPID
  2
ACAD
 70
     0
  0
APPID
  2
ACAD_PSEXT
 70
     0
  0
APPID
  2
ACAD_DSTYLE_DIMJOGGED_JOGA
 70
     0
  0
APPID
  2
ACAD_MLEADERVER
 70
     0
  0
APPID
  2
ACAD_DSTYLE_DIMJAG
 70
     0
  0
APPID
  2
ACAD_DSTYLE_DIMBREAK
 70
     0
  0
APPID
  2
ACAD_DSTYLE_DIMTALN
 70
     0
  0
APPID
  2
ACAD_EXEMPT_FROM_CAD_STANDARDS
 70
     0
  0
APPID
  2
ACAD_DSTYLE_DIM_LINETYPE
 70
     0
  0
APPID
  2
ACAD_DSTYLE_DIM_EXT1_LINETYPE
 70
     0
  0
APPID
  2
ACAD_DSTYLE_DIM_EXT2_LINETYPE
 70
     0
  0
APPID
  2
ACAECLAYERSTANDARD
 70
     0
  0
APPID
  2
ACADANNOTATIVE
 70
     0
  0
APPID
  2
ACAD_DSTYLE_DIMRADIAL_EXTENSION
 70
     0
  0
APPID
  2
ACAD_DSTYLE_DIMTEXT_FILL
 70
     0
  0
APPID
  2
ACAD_DSTYLE_DIMEXT_LENGTH
 70
     0
  0
APPID
  2
ACAD_DSTYLE_DIMEXT_ENABLED
 70
     0
  0
APPID
  2
ACAD_DSTYLE_DIMARC_LENGTH_
 70
     0
  0
APPID
  2
ACAD_NAV_VCDISPLAY
 70
     0
  0
APPID
  2
GENIUS_GENODEF_13
 70
     0
  0
APPID
  2
GENIUS_GENOBJ-N-FIL_13
 70
     0
  0
APPID
  2
ACCMTRANSPARENCY
 70
     0
  0
APPID
  2
ACADANNOMONITORALERTICONDI
 70
     0
  0
APPID
  2
GRADIENTCOLOR1ACI
 70
     0
  0
APPID
  2
GRADIENTCOLOR2ACI
 70
     0
  0
APPID
  2
ACAD_TC
 70
     0
  0
ENDTAB
  0
TABLE
  2
DIMSTYLE
 70
     2
  0
DIMSTYLE
  2
STANDARD
 70
     0
  3

  4

  5
DOTSMALL
  6

  7

 40
1.0
 41
1.0
 42
2.0
 43
8.0
 44
0.0
 45
0.0
 46
0.0
 47
0.0
 48
0.0
140
3.0
141
2.5
142
0.0
143
0.03937007874016
144
1.0
145
0.0
146
1.0
147
0.625
 71
     0
 72
     0
 73
     0
 74
     0
 75
     0
 76
     0
 77
     2
 78
     8
170
     0
171
     3
172
     1
173
     0
174
     0
175
     0
176
   256
177
   256
178
   256
  0
DIMSTYLE
  2
STANDARD$0
 70
     0
  3

  4

  5

  6
DOT
  7
DOT
 40
1.0
 41
0.4
 42
2.0
 43
3.75
 44
0.0
 45
0.0
 46
0.0
 47
0.0
 48
0.0
140
2.399999999999999
141
2.5
142
0.0
143
0.03937
144
1.0
145
0.0
146
1.0
147
0.625
 71
     0
 72
     0
 73
     0
 74
     0
 75
     0
 76
     0
 77
     2
 78
     0
170
     0
171
     2
172
     0
173
     1
174
     0
175
     0
176
     2
177
     2
178
     2
  0
ENDTAB
  0
ENDSEC
  0
SECTION
  2
BLOCKS
  0
BLOCK
  8
0
  2
$MODEL_SPACE
 70
     0
 10
0.0
 20
0.0
 30
0.0
  3
$MODEL_SPACE
  1

  0
ENDBLK
  5
21
  8
0
  0
BLOCK
 67
     1
  8
0
  2
$PAPER_SPACE
 70
     0
 10
0.0
 20
0.0
 30
0.0
  3
$PAPER_SPACE
  1

  0
ENDBLK
  5
1FE
 67
     1
  8
0
  0
BLOCK
  8
0
  2
_OPEN
 70
     0
 10
0.0
 20
0.0
 30
0.0
  3
_OPEN
  1

  0
LINE
  5
5A2
  8
0
  6
BYBLOCK
 62
     0
 10
-1.0
 20
0.1666666666666666
 30
0.0
 11
0.0
 21
0.0
 31
0.0
  0
LINE
  5
5A3
  8
0
  6
BYBLOCK
 62
     0
 10
-1.0
 20
-0.1666666666666666
 30
0.0
 11
0.0
 21
0.0
 31
0.0
  0
LINE
  5
5A4
  8
0
  6
BYBLOCK
 62
     0
 10
0.0
 20
0.0
 30
0.0
 11
-1.0
 21
0.0
 31
0.0
  0
ENDBLK
  5
5A6
  8
0
  0
BLOCK
  8
0
  2
_DOT
 70
     0
 10
0.0
 20
0.0
 30
0.0
  3
_DOT
  1

  0
POLYLINE
  5
36BA
  8
0
  6
BYBLOCK
 62
     0
 66
     1
 10
0.0
 20
0.0
 30
0.0
 70
     1
 40
0.5
 41
0.5
  0
VERTEX
  5
28BD7
  8
0
  6
BYBLOCK
 62
     0
 10
-0.25
 20
0.0
 30
0.0
 42
1.0
  0
VERTEX
  5
28BD8
  8
0
  6
BYBLOCK
 62
     0
 10
0.25
 20
0.0
 30
0.0
 42
1.0
  0
SEQEND
  5
28BD9
  8
0
  6
BYBLOCK
 62
     0
  0
LINE
  5
36BB
  8
0
  6
BYBLOCK
 62
     0
 10
-0.5
 20
0.0
 30
0.0
 11
-1.0
 21
0.0
 31
0.0
  0
ENDBLK
  5
36BD
  8
0
  0
BLOCK
  8
0
  2
_DOTSMALL
 70
     0
 10
0.0
 20
0.0
 30
0.0
  3
_DOTSMALL
  1

  0
POLYLINE
  5
2262B
  8
0
  6
BYBLOCK
 62
     0
 66
     1
 10
0.0
 20
0.0
 30
0.0
 70
     1
 40
0.5
 41
0.5
  0
VERTEX
  5
28BF6
  8
0
  6
BYBLOCK
 62
     0
 10
-0.0625
 20
0.0
 30
0.0
 42
1.0
  0
VERTEX
  5
28BF7
  8
0
  6
BYBLOCK
 62
     0
 10
0.0625
 20
0.0
 30
0.0
 42
1.0
  0
SEQEND
  5
28BF8
  8
0
  6
BYBLOCK
 62
     0
  0
ENDBLK
  5
2262D
  8
0
  0
BLOCK
  8
0
  2
A$C2A1B03D1
 70
     0
 10
0.0
 20
0.0
 30
0.0
  3
A$C2A1B03D1
  1

  0
LINE
  5
22A25
  8
本体2
 10
0.0
 20
0.0
 30
0.0
 11
0.0
 21
7.5
 31
0.0
  0
LINE
  5
22A26
  8
本体2
 10
-0.5999999999999659
 20
0.5999999999999659
 30
0.0
 11
-0.5999999999999091
 21
6.9000000000000039
 31
0.0
  0
LINE
  5
22A27
  8
本体2
 10
-0.5999999999999659
 20
0.5999999999999659
 30
0.0
 11
-3.0399999999999059
 21
0.5999999999999659
 31
0.0
  0
ARC
  5
22A28
  8
本体2
 10
-3.0399999999999059
 20
0.5399999999999637
 30
0.0
 40
0.06
 50
90.0
 51
180.0000000000048885
  0
LINE
  5
22A29
  8
本体2
 10
0.0
 20
0.0
 30
0.0
 11
-2.099999999999965
 21
0.0
 31
0.0
  0
LINE
  5
22A2A
  8
本体2
 10
-3.0999999999999082
 20
0.5399999999999637
 30
0.0
 11
-3.0999999999999082
 21
0.0
 31
0.0
  0
ARC
  5
22A2B
  8
本体2
 10
-2.5999999999999091
 20
0.0
 30
0.0
 40
0.4999999999999433
 50
180.0000000000057128
 51
0.0
  0
LINE
  5
22A2C
  8
本体2
 10
0.0
 20
7.5
 30
0.0
 11
-1.233974596215432
 21
7.5
 31
0.0
  0
LINE
  5
22A2D
  8
本体2
 10
-0.5999999999999091
 20
6.9000000000000039
 30
0.0
 11
-1.6399999999999291
 21
6.9000000000000039
 31
0.0
  0
ARC
  5
22A2E
  8
本体2
 10
-1.6399999999999291
 20
6.9600000000000071
 30
0.0
 40
0.06
 50
180.0
 51
270.0
  0
LINE
  5
22A2F
  8
本体2
 10
-1.69999999999993
 20
6.9600000000000071
 30
0.0
 11
-1.6999999999998729
 21
7.000000000000056
 31
0.0
  0
ARC
  5
22A30
  8
本体2
 10
-2.0999999999998509
 20
7.0000000000000133
 30
0.0
 40
0.4
 50
0.0
 51
180.0
  0
ARC
  5
22A31
  8
本体2
 10
-2.0999999999998509
 20
7.0000000000000133
 30
0.0
 40
1.0
 50
30.0000000000012506
 51
180.0
  0
LINE
  5
22A32
  8
本体2
 10
-2.499999999999829
 20
7.0000000000000133
 30
0.0
 11
-2.499999999999885
 21
6.4000000000000039
 31
0.0
  0
LINE
  5
22A33
  8
本体2
 10
-3.0999999999999082
 20
7.0000000000000133
 30
0.0
 11
-3.0999999999999082
 21
6.4000000000000039
 31
0.0
  0
ARC
  5
22A34
  8
本体2
 10
-2.7999999999998959
 20
6.4550000000001111
 30
0.0
 40
0.3050000000000304
 50
190.3888578154883078
 51
349.6111421845117206
  0
ENDBLK
  5
22A35
  8
0
  0
BLOCK
  8
0
  2
A$C4A617CED
 70
     0
 10
0.0
 20
0.0
 30
0.0
  3
A$C4A617CED
  1

  0
LINE
  5
22A38
  8
ビス類
  6
CONTINUOUS
 62
     3
 10
0.9042630175509316
 20
7.7956497501606909
 30
0.0
 11
1.8671592281284559
 21
4.9655544321773828
 31
0.0
  0
LINE
  5
22A39
  8
ビス類
  6
CONTINUOUS
 62
     3
 10
0.9042630175508747
 20
8.3394848295602628
 30
0.0
 11
2.0521907123352321
 21
4.9655544321773828
 31
0.0
  0
LINE
  5
22A3A
  8
ビス類
  6
CONTINUOUS
 62
     3
 10
0.9042630175509316
 20
9.2956497501606936
 30
0.0
 11
1.8671592281284559
 21
6.4655544321773828
 31
0.0
  0
LINE
  5
22A3B
  8
ビス類
  6
CONTINUOUS
 62
     3
 10
1.1249793749999519
 20
9.1907665949705688
 30
0.0
 11
2.0521907123352321
 21
6.4655544321773828
 31
0.0
  0
ARC
  5
22A3C
  8
ビス類
  6
CONTINUOUS
 62
     3
 10
1.358711591947211
 20
0.5800070736869998
 30
0.0
 40
1.7407710509528029
 50
269.7129073154002867
 51
340.5375047996116109
  0
LINE
  5
22A3D
  8
ビス類
  6
CONTINUOUS
 62
     3
 10
0.0
 20
0.0
 30
0.0
 11
2.1776225963762941
 21
0.0
 31
0.0
  0
LINE
  5
22A3E
  8
ビス類
  6
CONTINUOUS
 62
     3
 10
-3.0000146250000621
 20
0.0
 30
0.0
 11
3.0000146250000039
 21
0.0
 31
0.0
  0
LINE
  5
22A3F
  8
ビス類
  6
CONTINUOUS
 62
     3
 10
-0.75
 20
1.4999999999999429
 30
0.0
 11
0.75
 21
1.75
 31
0.0
  0
LINE
  5
22A40
  8
ビス類
  6
CONTINUOUS
 62
     3
 10
0.75
 20
2.89999500000016
 30
0.0
 11
0.75
 21
0.0
 31
0.0
  0
LINE
  5
22A41
  8
ビス類
  6
CONTINUOUS
 62
     3
 10
-0.75
 20
2.89999500000016
 30
0.0
 11
-0.75
 21
0.0
 31
0.0
  0
LINE
  5
22A42
  8
ビス類
  6
CONTINUOUS
 62
     3
 10
1.3499891249999789
 20
-1.1607421243325571
 30
0.0
 11
-1.3499921249999709
 21
-1.1607421243325571
 31
0.0
  0
ARC
  5
22A43
  8
ビス類
  6
CONTINUOUS
 62
     3
 10
-1.3197804204722841
 20
0.6353486811821086
 30
0.0
 40
1.796344880234549
 50
200.7131604557025071
 51
269.0363293842240751
  0
ARC
  5
22A44
  8
ビス類
  6
CONTINUOUS
 62
     3
 10
0.7500003750000133
 20
-0.7857346243325197
 30
0.0
 40
0.374999925
 50
180.0
 51
270.0
  0
ARC
  5
22A45
  8
ビス類
  6
CONTINUOUS
 62
     3
 10
-0.7499996249999868
 20
-0.7857346243325197
 30
0.0
 40
0.374999925
 50
270.0
 51
0.0
  0
LINE
  5
22A46
  8
ビス類
  6
CONTINUOUS
 62
     3
 10
-0.3749996999999894
 20
-0.7857346243325197
 30
0.0
 11
0.3750004500000159
 21
-0.7857346243325197
 31
0.0
  0
LINE
  5
22A47
  8
ビス類
  6
CONTINUOUS
 62
     3
 10
-0.75
 20
0.0
 30
0.0
 11
0.75
 21
0.25
 31
0.0
  0
LINE
  5
22A48
  8
ビス類
  6
CONTINUOUS
 62
     3
 10
-0.75
 20
0.2499999999999432
 30
0.0
 11
0.75
 21
0.5
 31
0.0
  0
LINE
  5
22A49
  8
ビス類
  6
CONTINUOUS
 62
     3
 10
-0.75
 20
0.4999999999999433
 30
0.0
 11
0.75
 21
0.75
 31
0.0
  0
LINE
  5
22A4A
  8
ビス類
  6
CONTINUOUS
 62
     3
 10
-0.75
 20
0.7499999999999432
 30
0.0
 11
0.75
 21
1.0
 31
0.0
  0
LINE
  5
22A4B
  8
ビス類
  6
CONTINUOUS
 62
     3
 10
-0.75
 20
0.999999999999943
 30
0.0
 11
0.75
 21
1.25
 31
0.0
  0
LINE
  5
22A4C
  8
ビス類
  6
CONTINUOUS
 62
     3
 10
-0.75
 20
1.249999999999942
 30
0.0
 11
0.75
 21
1.5
 31
0.0
  0
LINE
  5
22A4D
  8
ビス類
  6
CONTINUOUS
 62
     3
 10
0.9042630175509316
 20
9.2956497501606936
 30
0.0
 11
0.9042630175508747
 21
8.3394848295602628
 31
0.0
  0
LINE
  5
22A4E
  8
ビス類
  6
CONTINUOUS
 62
     3
 10
-0.9042630175509883
 20
9.2956497501606936
 30
0.0
 11
-0.9042630175509316
 21
8.3394848295603161
 31
0.0
  0
LINE
  5
22A4F
  8
ビス類
  6
CONTINUOUS
 62
     3
 10
-0.4881249991523191
 20
9.3175078496242936
 30
0.0
 11
0.2145256626359924
 21
7.5951765204557642
 31
0.0
  0
LINE
  5
22A50
  8
ビス類
  6
CONTINUOUS
 62
     3
 10
-0.3631833222509613
 20
9.3053296521151765
 30
0.0
 11
0.3371628707037644
 21
7.5886470173621774
 31
0.0
  0
LINE
  5
22A51
  8
ビス類
  6
CONTINUOUS
 62
     3
 10
-0.3631833222509613
 20
9.3053296521151765
 30
0.0
 11
0.3371628707037644
 21
7.5886470173621774
 31
0.0
  0
LINE
  5
22A52
  8
ビス類
  6
CONTINUOUS
 62
     3
 10
-0.9042630175509883
 20
9.2956497501606936
 30
0.0
 11
-1.8671592281284559
 21
6.4655544321773828
 31
0.0
  0
LINE
  5
22A53
  8
ビス類
  6
CONTINUOUS
 62
     3
 10
-1.124979375000065
 20
9.1907665949705688
 30
0.0
 11
-2.0521907123352321
 21
6.4655544321773828
 31
0.0
  0
LINE
  5
22A54
  8
ビス類
  6
CONTINUOUS
 62
     3
 10
-1.124979375000065
 20
5.4655544321773828
 30
0.0
 11
-1.124979375000065
 21
2.89999500000016
 31
0.0
  0
LINE
  5
22A55
  8
ビス類
  6
CONTINUOUS
 62
     3
 10
-0.9042630175509883
 20
7.7956497501606909
 30
0.0
 11
-1.8671592281284559
 21
4.9655544321773828
 31
0.0
  0
LINE
  5
22A56
  8
ビス類
  6
CONTINUOUS
 62
     3
 10
-0.9042630175509316
 20
8.3394848295602628
 30
0.0
 11
-2.0521907123352321
 21
4.9655544321773828
 31
0.0
  0
LINE
  5
22A57
  8
ビス類
  6
CONTINUOUS
 62
     3
 10
-0.0394415918066216
 20
6.8888980843683481
 30
0.0
 11
-0.0394415918066216
 21
5.1741175731484068
 31
0.0
  0
LINE
  5
22A58
  8
ビス類
  6
CONTINUOUS
 62
     3
 10
-0.1499968461649814
 20
6.9178764298369506
 30
0.0
 11
-0.1499968461649814
 21
5.1741175731484068
 31
0.0
  0
LINE
  5
22A59
  8
ビス類
  6
CONTINUOUS
 62
     3
 10
1.1249793749999519
 20
5.4655544321773828
 30
0.0
 11
1.1249793749999519
 21
2.89999500000016
 31
0.0
  0
LINE
  5
22A5A
  8
ビス類
  6
CONTINUOUS
 62
     3
 10
-1.124979375000065
 20
4.5340877939856341
 30
0.0
 11
-1.5007887585778681
 21
2.89999500000016
 31
0.0
  0
LINE
  5
22A5B
  8
ビス類
  6
CONTINUOUS
 62
     3
 10
-2.0521907123352321
 20
4.9655544321773828
 30
0.0
 11
-1.8671592281284559
 21
4.9655544321773828
 31
0.0
  0
LINE
  5
22A5C
  8
ビス類
  6
CONTINUOUS
 62
     3
 10
-0.0394415918066216
 20
5.1741175731484068
 30
0.0
 11
-0.1499968461649814
 21
5.1741175731484068
 31
0.0
  0
LINE
  5
22A5D
  8
ビス類
  6
CONTINUOUS
 62
     3
 10
-0.75
 20
1.7499999999999429
 30
0.0
 11
0.75
 21
2.0
 31
0.0
  0
LINE
  5
22A5E
  8
ビス類
  6
CONTINUOUS
 62
     3
 10
-0.75
 20
1.9999999999999429
 30
0.0
 11
0.75
 21
2.25
 31
0.0
  0
LINE
  5
22A5F
  8
ビス類
  6
CONTINUOUS
 62
     3
 10
-0.75
 20
2.2499999999999432
 30
0.0
 11
0.75
 21
2.5
 31
0.0
  0
LINE
  5
22A60
  8
ビス類
  6
CONTINUOUS
 62
     3
 10
-0.75
 20
2.4999999999999432
 30
0.0
 11
0.75
 21
2.75
 31
0.0
  0
LINE
  5
22A61
  8
ビス類
  6
CONTINUOUS
 62
     3
 10
-0.75
 20
2.4999999999999432
 30
0.0
 11
0.75
 21
2.75
 31
0.0
  0
LINE
  5
22A62
  8
ビス類
  6
CONTINUOUS
 62
     3
 10
-0.75
 20
2.7499999999999432
 30
0.0
 11
0.1499700000010193
 21
2.89999500000016
 31
0.0
  0
LINE
  5
22A63
  8
ビス類
  6
CONTINUOUS
 62
     3
 10
1.1249793749999519
 20
4.5340877939856341
 30
0.0
 11
1.5007887585778681
 21
2.89999500000016
 31
0.0
  0
LINE
  5
22A64
  8
ビス類
  6
CONTINUOUS
 62
     3
 10
-0.9042630175508747
 20
5.4655544321773828
 30
0.0
 11
-1.124979375000065
 21
5.4655544321773828
 31
0.0
  0
LINE
  5
22A65
  8
ビス類
  6
CONTINUOUS
 62
     3
 10
-2.0521907123352321
 20
6.4655544321773828
 30
0.0
 11
-1.8671592281284559
 21
6.4655544321773828
 31
0.0
  0
LINE
  5
22A66
  8
ビス類
  6
CONTINUOUS
 62
     3
 10
0.9042630175507612
 20
5.4655544321773828
 30
0.0
 11
1.1249793749999519
 21
5.4655544321773828
 31
0.0
  0
LINE
  5
22A67
  8
ビス類
  6
CONTINUOUS
 62
     3
 10
0.2145256626359924
 20
7.5951765204557642
 30
0.0
 11
-0.1499968461649814
 21
6.9178764298369506
 31
0.0
  0
LINE
  5
22A68
  8
ビス類
  6
CONTINUOUS
 62
     3
 10
0.3371628707037644
 20
7.5886470173621774
 30
0.0
 11
-0.0394415918066216
 21
6.8888980843683481
 31
0.0
  0
LINE
  5
22A69
  8
ビス類
  6
CONTINUOUS
 62
     3
 10
-0.9042630175508747
 20
7.7956497501608624
 30
0.0
 11
-0.9042630175508747
 21
5.4655544321773828
 31
0.0
  0
LINE
  5
22A6A
  8
ビス類
  6
CONTINUOUS
 62
     3
 10
0.9042630175508747
 20
7.7956497501608037
 30
0.0
 11
0.9042630175507612
 21
5.4655544321773828
 31
0.0
  0
LINE
  5
22A6B
  8
ビス類
  6
CONTINUOUS
 62
     3
 10
-1.124979375000065
 20
9.1907665949705688
 30
0.0
 11
-1.1249846250000239
 21
13.7319703239435302
 31
0.0
  0
LINE
  5
22A6C
  8
ビス類
  6
CONTINUOUS
 62
     3
 10
1.1249793749999519
 20
9.1907665949705688
 30
0.0
 11
1.1249793749999519
 21
13.7319703239435302
 31
0.0
  0
LINE
  5
22A6D
  8
ビス類
  6
CONTINUOUS
 62
     3
 10
0.0552750021792008
 20
14.6478268543646593
 30
0.0
 11
0.0552750021792008
 21
12.2459280865757005
 31
0.0
  0
LINE
  5
22A6E
  8
ビス類
  6
CONTINUOUS
 62
     3
 10
-0.0552802521791591
 20
14.6478268543646593
 30
0.0
 11
-0.0552802521791591
 21
12.2285971388733401
 31
0.0
  0
LINE
  5
22A6F
  8
ビス類
  6
CONTINUOUS
 62
     3
 10
0.0552750021792008
 20
12.2459280865757005
 30
0.0
 11
0.5122497926015513
 21
10.6366348687780601
 31
0.0
  0
LINE
  5
22A70
  8
ビス類
  6
CONTINUOUS
 62
     3
 10
-0.0552802521791591
 20
12.2285971388733401
 30
0.0
 11
0.39150345470415
 21
10.6551930816268001
 31
0.0
  0
LINE
  5
22A71
  8
ビス類
  6
CONTINUOUS
 62
     3
 10
0.5122497926015513
 20
10.6366348687780601
 30
0.0
 11
-0.3631833222509613
 21
9.3053296521151765
 31
0.0
  0
LINE
  5
22A72
  8
ビス類
  6
CONTINUOUS
 62
     3
 10
0.39150345470415
 20
10.6551930816268001
 30
0.0
 11
-0.4881249991523191
 21
9.3175078496242936
 31
0.0
  0
LINE
  5
22A73
  8
ビス類
  6
CONTINUOUS
 62
     3
 10
-0.2211131337166989
 20
14.6478268543646593
 30
0.0
 11
-1.1249846250000239
 21
13.7319703239435302
 31
0.0
  0
LINE
  5
22A74
  8
ビス類
  6
CONTINUOUS
 62
     3
 10
0.2211078837167406
 20
14.6478268543646593
 30
0.0
 11
1.1249793749999519
 21
13.7319703239435302
 31
0.0
  0
LINE
  5
22A75
  8
ビス類
  6
CONTINUOUS
 62
     3
 10
0.2211078837167406
 20
14.6478268543646593
 30
0.0
 11
-0.2211131337166989
 21
14.6478268543646593
 31
0.0
  0
LINE
  5
22A76
  8
ビス類
  6
CONTINUOUS
 62
     3
 10
2.0521907123352321
 20
4.9655544321773828
 30
0.0
 11
1.8671592281284559
 21
4.9655544321773828
 31
0.0
  0
LINE
  5
22A77
  8
ビス類
  6
CONTINUOUS
 62
     3
 10
2.0521907123352321
 20
6.4655544321773828
 30
0.0
 11
1.8671592281284559
 21
6.4655544321773828
 31
0.0
  0
ENDBLK
  5
22A78
  8
0
  0
BLOCK
  8
0
  2
*D6
 70
     1
 10
0.0
 20
0.0
 30
0.0
  3
*D6
  1

  0
LINE
  5
288C4
  8
寸法
 62
     2
 10
218.2801465303348891
 20
192.198505920889005
 30
0.0
 11
218.2801465303348891
 21
200.627443631699407
 31
0.0
  0
LINE
  5
288C5
  8
寸法
 62
     2
 10
212.2801465303348891
 20
192.198505920889005
 30
0.0
 11
212.2801465303348891
 21
200.627443631699407
 31
0.0
  0
LINE
  5
288C6
  8
寸法
 62
     2
 10
217.8801465303349119
 20
200.627443631699407
 30
0.0
 11
212.6801465303348948
 21
200.627443631699407
 31
0.0
  0
INSERT
  5
288C7
  8
寸法
 62
     2
  2
_DOT
 10
218.2801465303348891
 20
200.627443631699407
 30
0.0
 41
0.4
 42
0.4
 43
0.4
  0
INSERT
  5
288C8
  8
寸法
 62
     2
  2
_DOT
 10
212.2801465303348891
 20
200.627443631699407
 30
0.0
 41
0.4
 42
0.4
 43
0.4
 50
180.0
  0
INSERT
  5
288C9
  8
寸法
  2
*U55
 10
0.0
 20
0.0
 30
0.0
  0
POINT
  5
288CA
  8
DEFPOINTS
 62
     0
 10
218.2801465303348891
 20
190.198505920889005
 30
0.0
  0
POINT
  5
288CB
  8
DEFPOINTS
 62
     0
 10
212.2801465303348891
 20
190.198505920889005
 30
0.0
  0
POINT
  5
288CC
  8
DEFPOINTS
 62
     0
 10
212.2801465303348891
 20
200.627443631699407
 30
0.0
  0
ENDBLK
  5
27BBF
  8
0
  0
BLOCK
  8
0
  2
*D7
 70
     1
 10
0.0
 20
0.0
 30
0.0
  3
*D7
  1

  0
LINE
  5
288BB
  8
寸法
 62
     2
 10
210.2801465303350028
 20
190.1985059208890902
 30
0.0
 11
194.1231361022286137
 21
190.1985059208890902
 31
0.0
  0
LINE
  5
288BC
  8
寸法
 62
     2
 10
210.2801465303350028
 20
56.8651725875557474
 30
0.0
 11
194.1231361022286137
 21
56.8651725875557403
 31
0.0
  0
LINE
  5
288BD
  8
寸法
 62
     2
 10
194.1231361022286137
 20
189.798505920889113
 30
0.0
 11
194.1231361022286137
 21
57.2651725875557389
 31
0.0
  0
INSERT
  5
288BE
  8
寸法
 62
     2
  2
_DOT
 10
194.1231361022286137
 20
190.1985059208890902
 30
0.0
 41
0.4
 42
0.4
 43
0.4
 50
90.0
  0
INSERT
  5
288BF
  8
寸法
 62
     2
  2
_DOT
 10
194.1231361022286137
 20
56.8651725875557403
 30
0.0
 41
0.4
 42
0.4
 43
0.4
 50
270.0
  0
INSERT
  5
288C0
  8
寸法
  2
*U54
 10
0.0
 20
0.0
 30
0.0
  0
POINT
  5
288C1
  8
DEFPOINTS
 62
     0
 10
212.2801465303350028
 20
190.1985059208890902
 30
0.0
  0
POINT
  5
288C2
  8
DEFPOINTS
 62
     0
 10
212.2801465303350028
 20
56.8651725875557474
 30
0.0
  0
POINT
  5
288C3
  8
DEFPOINTS
 62
     0
 10
194.1231361022286137
 20
56.8651725875557403
 30
0.0
  0
ENDBLK
  5
27BCB
  8
0
  0
BLOCK
  8
0
  2
*D8
 70
     1
 10
0.0
 20
0.0
 30
0.0
  3
*D8
  1

  0
LINE
  5
288B2
  8
寸法
 62
     2
 10
229.4269013079922956
 20
146.8651738047587116
 30
0.0
 11
233.1077509830051895
 21
146.8651738047587116
 31
0.0
  0
LINE
  5
288B3
  8
寸法
 62
     2
 10
229.4269013079922956
 20
190.1985071380921113
 30
0.0
 11
233.1077509830051895
 21
190.1985071380921113
 31
0.0
  0
LINE
  5
288B4
  8
寸法
 62
     2
 10
233.1077509830051895
 20
147.2651738047588026
 30
0.0
 11
233.1077509830051895
 21
189.7985071380921056
 31
0.0
  0
INSERT
  5
288B5
  8
寸法
 62
     2
  2
_DOT
 10
233.1077509830051895
 20
146.8651738047587116
 30
0.0
 41
0.4
 42
0.4
 43
0.4
 50
270.0
  0
INSERT
  5
288B6
  8
寸法
 62
     2
  2
_DOT
 10
233.1077509830051895
 20
190.1985071380921113
 30
0.0
 41
0.4
 42
0.4
 43
0.4
 50
90.0
  0
INSERT
  5
288B7
  8
寸法
  2
*U53
 10
0.0
 20
0.0
 30
0.0
  0
POINT
  5
288B8
  8
DEFPOINTS
 62
     0
 10
227.4269013079922956
 20
146.8651738047587116
 30
0.0
  0
POINT
  5
288B9
  8
DEFPOINTS
 62
     0
 10
227.4269013079922956
 20
190.1985071380921113
 30
0.0
  0
POINT
  5
288BA
  8
DEFPOINTS
 62
     0
 10
233.1077509830051895
 20
190.1985071380921113
 30
0.0
  0
ENDBLK
  5
27BD7
  8
0
  0
BLOCK
  8
0
  2
*D9
 70
     1
 10
0.0
 20
0.0
 30
0.0
  3
*D9
  1

  0
LINE
  5
288A9
  8
寸法
 62
     2
 10
230.1244615453464064
 20
76.865182337555666
 30
0.0
 11
233.1077509830055021
 21
76.865182337555666
 31
0.0
  0
LINE
  5
288AA
  8
寸法
 62
     2
 10
230.1244615453464064
 20
56.8651823375556731
 30
0.0
 11
233.1077509830055021
 21
56.8651823375556731
 31
0.0
  0
LINE
  5
288AB
  8
寸法
 62
     2
 10
233.1077509830055021
 20
76.4651823375556603
 30
0.0
 11
233.1077509830055021
 21
57.2651823375556575
 31
0.0
  0
INSERT
  5
288AC
  8
寸法
 62
     2
  2
_DOT
 10
233.1077509830055021
 20
76.865182337555666
 30
0.0
 41
0.4
 42
0.4
 43
0.4
 50
90.0
  0
INSERT
  5
288AD
  8
寸法
 62
     2
  2
_DOT
 10
233.1077509830055021
 20
56.8651823375556731
 30
0.0
 41
0.4
 42
0.4
 43
0.4
 50
270.0
  0
INSERT
  5
288AE
  8
寸法
  2
*U52
 10
0.0
 20
0.0
 30
0.0
  0
POINT
  5
288AF
  8
DEFPOINTS
 62
     0
 10
228.1244615453464064
 20
76.865182337555666
 30
0.0
  0
POINT
  5
288B0
  8
DEFPOINTS
 62
     0
 10
228.1244615453464064
 20
56.8651823375556731
 30
0.0
  0
POINT
  5
288B1
  8
DEFPOINTS
 62
     0
 10
233.1077509830055021
 20
56.8651823375556731
 30
0.0
  0
ENDBLK
  5
27BE3
  8
0
  0
BLOCK
  8
0
  2
*D10
 70
     1
 10
0.0
 20
0.0
 30
0.0
  3
*D10
  1

  0
LINE
  5
288A0
  8
寸法
 62
     2
 10
235.1077509830041095
 20
146.8651738047587969
 30
0.0
 11
233.1077509830057863
 21
146.8651738047587969
 31
0.0
  0
LINE
  5
288A1
  8
寸法
 62
     2
 10
235.1077509830043937
 20
76.8651823375556944
 30
0.0
 11
233.1077509830057863
 21
76.8651823375556944
 31
0.0
  0
LINE
  5
288A2
  8
寸法
 62
     2
 10
233.1077509830057863
 20
146.4651738047587912
 30
0.0
 11
233.1077509830057863
 21
77.2651823375557001
 31
0.0
  0
INSERT
  5
288A3
  8
寸法
 62
     2
  2
_DOT
 10
233.1077509830057863
 20
146.8651738047587969
 30
0.0
 41
0.4
 42
0.4
 43
0.4
 50
90.0
  0
INSERT
  5
288A4
  8
寸法
 62
     2
  2
_DOT
 10
233.1077509830057863
 20
76.8651823375556944
 30
0.0
 41
0.4
 42
0.4
 43
0.4
 50
270.0
  0
INSERT
  5
288A5
  8
寸法
  2
*U51
 10
0.0
 20
0.0
 30
0.0
  0
POINT
  5
288A6
  8
DEFPOINTS
 62
     0
 10
233.1077509830041095
 20
146.8651738047587969
 30
0.0
  0
POINT
  5
288A7
  8
DEFPOINTS
 62
     0
 10
233.1077509830043937
 20
76.8651823375556944
 30
0.0
  0
POINT
  5
288A8
  8
DEFPOINTS
 62
     0
 10
233.1077509830057863
 20
76.8651823375556944
 30
0.0
  0
ENDBLK
  5
27BEF
  8
0
  0
BLOCK
  8
0
  2
*D11
 70
     1
 10
0.0
 20
0.0
 30
0.0
  3
*D11
  1

  0
LINE
  5
288E8
  8
寸法
 62
     2
 10
210.2801465303350028
 20
118.1985059208891045
 30
0.0
 11
205.3649715597811962
 21
118.1985059208891045
 31
0.0
  0
LINE
  5
288E9
  8
寸法
 62
     2
 10
210.2801465303350028
 20
94.1985059208890618
 30
0.0
 11
205.3649715597811962
 21
94.1985059208890618
 31
0.0
  0
LINE
  5
288EA
  8
寸法
 62
     2
 10
205.3649715597811962
 20
117.7985059208890988
 30
0.0
 11
205.3649715597811962
 21
94.5985059208890675
 31
0.0
  0
INSERT
  5
288EB
  8
寸法
 62
     2
  2
_DOT
 10
205.3649715597811962
 20
118.1985059208891045
 30
0.0
 41
0.4
 42
0.4
 43
0.4
 50
90.0
  0
INSERT
  5
288EC
  8
寸法
 62
     2
  2
_DOT
 10
205.3649715597811962
 20
94.1985059208890618
 30
0.0
 41
0.4
 42
0.4
 43
0.4
 50
270.0
  0
INSERT
  5
288ED
  8
寸法
  2
*U59
 10
0.0
 20
0.0
 30
0.0
  0
POINT
  5
288EE
  8
DEFPOINTS
 62
     0
 10
212.2801465303350028
 20
118.1985059208891045
 30
0.0
  0
POINT
  5
288EF
  8
DEFPOINTS
 62
     0
 10
212.2801465303350028
 20
94.1985059208890618
 30
0.0
  0
POINT
  5
288F0
  8
DEFPOINTS
 62
     0
 10
205.3649715597811962
 20
94.1985059208890618
 30
0.0
  0
ENDBLK
  5
27C63
  8
0
  0
BLOCK
  8
0
  2
*D12
 70
     1
 10
0.0
 20
0.0
 30
0.0
  3
*D12
  1

  0
LINE
  5
288DF
  8
寸法
 62
     2
 10
210.2801465303350028
 20
94.1985059208890618
 30
0.0
 11
205.364971559781111
 21
94.1985059208890618
 31
0.0
  0
LINE
  5
288E0
  8
寸法
 62
     2
 10
210.2801465303350028
 20
87.5318392542224046
 30
0.0
 11
205.364971559781111
 21
87.5318392542224046
 31
0.0
  0
LINE
  5
288E1
  8
寸法
 62
     2
 10
205.364971559781111
 20
93.7985059208890561
 30
0.0
 11
205.364971559781111
 21
87.9318392542224103
 31
0.0
  0
INSERT
  5
288E2
  8
寸法
 62
     2
  2
_DOT
 10
205.364971559781111
 20
94.1985059208890618
 30
0.0
 41
0.4
 42
0.4
 43
0.4
 50
90.0
  0
INSERT
  5
288E3
  8
寸法
 62
     2
  2
_DOT
 10
205.364971559781111
 20
87.5318392542224046
 30
0.0
 41
0.4
 42
0.4
 43
0.4
 50
270.0
  0
INSERT
  5
288E4
  8
寸法
  2
*U58
 10
0.0
 20
0.0
 30
0.0
  0
POINT
  5
288E5
  8
DEFPOINTS
 62
     0
 10
212.2801465303350028
 20
94.1985059208890618
 30
0.0
  0
POINT
  5
288E6
  8
DEFPOINTS
 62
     0
 10
212.2801465303350028
 20
87.5318392542224046
 30
0.0
  0
POINT
  5
288E7
  8
DEFPOINTS
 62
     0
 10
205.364971559781111
 20
87.5318392542224046
 30
0.0
  0
ENDBLK
  5
27C6F
  8
0
  0
BLOCK
  8
0
  2
*D13
 70
     1
 10
0.0
 20
0.0
 30
0.0
  3
*D13
  1

  0
LINE
  5
288D6
  8
寸法
 62
     2
 10
210.2801465303350028
 20
87.5318392542224046
 30
0.0
 11
205.3649715597813099
 21
87.5318392542224046
 31
0.0
  0
LINE
  5
288D7
  8
寸法
 62
     2
 10
210.2801465303350028
 20
63.5318392542223975
 30
0.0
 11
205.3649715597813099
 21
63.5318392542223904
 31
0.0
  0
LINE
  5
288D8
  8
寸法
 62
     2
 10
205.3649715597813099
 20
87.1318392542223989
 30
0.0
 11
205.3649715597813099
 21
63.931839254222389
 31
0.0
  0
INSERT
  5
288D9
  8
寸法
 62
     2
  2
_DOT
 10
205.3649715597813099
 20
87.5318392542224046
 30
0.0
 41
0.4
 42
0.4
 43
0.4
 50
90.0
  0
INSERT
  5
288DA
  8
寸法
 62
     2
  2
_DOT
 10
205.3649715597813099
 20
63.5318392542223904
 30
0.0
 41
0.4
 42
0.4
 43
0.4
 50
270.0
  0
INSERT
  5
288DB
  8
寸法
  2
*U57
 10
0.0
 20
0.0
 30
0.0
  0
POINT
  5
288DC
  8
DEFPOINTS
 62
     0
 10
212.2801465303350028
 20
87.5318392542224046
 30
0.0
  0
POINT
  5
288DD
  8
DEFPOINTS
 62
     0
 10
212.2801465303350028
 20
63.5318392542223975
 30
0.0
  0
POINT
  5
288DE
  8
DEFPOINTS
 62
     0
 10
205.3649715597813099
 20
63.5318392542223904
 30
0.0
  0
ENDBLK
  5
27C7B
  8
0
  0
BLOCK
  8
0
  2
*D14
 70
     1
 10
0.0
 20
0.0
 30
0.0
  3
*D14
  1

  0
LINE
  5
288CD
  8
寸法
 62
     2
 10
210.2801465303350028
 20
63.5318392542223975
 30
0.0
 11
205.364971559781111
 21
63.5318392542223904
 31
0.0
  0
LINE
  5
288CE
  8
寸法
 62
     2
 10
210.2801465303350028
 20
56.8651725875557474
 30
0.0
 11
205.364971559781111
 21
56.8651725875557403
 31
0.0
  0
LINE
  5
288CF
  8
寸法
 62
     2
 10
205.364971559781111
 20
63.1318392542223989
 30
0.0
 11
205.364971559781111
 21
57.2651725875557389
 31
0.0
  0
INSERT
  5
288D0
  8
寸法
 62
     2
  2
_DOT
 10
205.364971559781111
 20
63.5318392542223904
 30
0.0
 41
0.4
 42
0.4
 43
0.4
 50
90.0
  0
INSERT
  5
288D1
  8
寸法
 62
     2
  2
_DOT
 10
205.364971559781111
 20
56.8651725875557403
 30
0.0
 41
0.4
 42
0.4
 43
0.4
 50
270.0
  0
INSERT
  5
288D2
  8
寸法
  2
*U56
 10
0.0
 20
0.0
 30
0.0
  0
POINT
  5
288D3
  8
DEFPOINTS
 62
     0
 10
212.2801465303350028
 20
63.5318392542223975
 30
0.0
  0
POINT
  5
288D4
  8
DEFPOINTS
 62
     0
 10
212.2801465303350028
 20
56.8651725875557474
 30
0.0
  0
POINT
  5
288D5
  8
DEFPOINTS
 62
     0
 10
205.364971559781111
 20
56.8651725875557403
 30
0.0
  0
ENDBLK
  5
27C87
  8
0
  0
BLOCK
  8
0
  2
*D15
 70
     1
 10
0.0
 20
0.0
 30
0.0
  3
*D15
  1

  0
LINE
  5
28897
  8
寸法
 62
     2
 10
210.2801465303350028
 20
124.8651725875558043
 30
0.0
 11
205.3649715597815941
 21
124.8651725875558043
 31
0.0
  0
LINE
  5
28898
  8
寸法
 62
     2
 10
210.2801465303350028
 20
118.1985059208891045
 30
0.0
 11
205.3649715597815941
 21
118.1985059208891045
 31
0.0
  0
LINE
  5
28899
  8
寸法
 62
     2
 10
205.3649715597815941
 20
124.4651725875557986
 30
0.0
 11
205.3649715597815941
 21
118.5985059208890959
 31
0.0
  0
INSERT
  5
2889A
  8
寸法
 62
     2
  2
_DOT
 10
205.3649715597815941
 20
124.8651725875558043
 30
0.0
 41
0.4
 42
0.4
 43
0.4
 50
90.0
  0
INSERT
  5
2889B
  8
寸法
 62
     2
  2
_DOT
 10
205.3649715597815941
 20
118.1985059208891045
 30
0.0
 41
0.4
 42
0.4
 43
0.4
 50
270.0
  0
INSERT
  5
2889C
  8
寸法
  2
*U50
 10
0.0
 20
0.0
 30
0.0
  0
POINT
  5
2889D
  8
DEFPOINTS
 62
     0
 10
212.2801465303350028
 20
124.8651725875558043
 30
0.0
  0
POINT
  5
2889E
  8
DEFPOINTS
 62
     0
 10
212.2801465303350028
 20
118.1985059208891045
 30
0.0
  0
POINT
  5
2889F
  8
DEFPOINTS
 62
     0
 10
205.3649715597815941
 20
118.1985059208891045
 30
0.0
  0
ENDBLK
  5
27D28
  8
0
  0
BLOCK
  8
0
  2
*D16
 70
     1
 10
0.0
 20
0.0
 30
0.0
  3
*D16
  1

  0
LINE
  5
2888E
  8
注釈
 62
     2
 10
210.2801465303350028
 20
190.1985059208890902
 30
0.0
 11
205.3649715597817931
 21
190.1985059208890902
 31
0.0
  0
LINE
  5
2888F
  8
注釈
 62
     2
 10
210.2801465303350028
 20
143.5318392542224046
 30
0.0
 11
205.3649715597817931
 21
143.5318392542224046
 31
0.0
  0
LINE
  5
28890
  8
注釈
 62
     2
 10
205.3649715597817931
 20
189.798505920889113
 30
0.0
 11
205.3649715597817931
 21
143.9318392542224103
 31
0.0
  0
INSERT
  5
28891
  8
注釈
 62
     2
  2
_DOT
 10
205.3649715597817931
 20
190.1985059208890902
 30
0.0
 41
0.4
 42
0.4
 43
0.4
 50
90.0
  0
INSERT
  5
28892
  8
注釈
 62
     2
  2
_DOT
 10
205.3649715597817931
 20
143.5318392542224046
 30
0.0
 41
0.4
 42
0.4
 43
0.4
 50
270.0
  0
INSERT
  5
28893
  8
寸法
  2
*U49
 10
0.0
 20
0.0
 30
0.0
  0
POINT
  5
28894
  8
DEFPOINTS
 62
     0
 10
212.2801465303350028
 20
190.1985059208890902
 30
0.0
  0
POINT
  5
28895
  8
DEFPOINTS
 62
     0
 10
212.2801465303350028
 20
143.5318392542224046
 30
0.0
  0
POINT
  5
28896
  8
DEFPOINTS
 62
     0
 10
205.3649715597817931
 20
143.5318392542224046
 30
0.0
  0
ENDBLK
  5
27D35
  8
0
  0
BLOCK
  8
0
  2
*D17
 70
     1
 10
0.0
 20
0.0
 30
0.0
  3
*D17
  1

  0
LINE
  5
28885
  8
寸法
 62
     2
 10
73.5924657950996277
 20
145.5424333611267969
 30
0.0
 11
63.6690835383011375
 21
145.5424333611267969
 31
0.0
  0
LINE
  5
28886
  8
寸法
 62
     2
 10
73.5924657950996277
 20
85.5424333611268253
 30
0.0
 11
63.6690835383011517
 21
85.5424333611268253
 31
0.0
  0
LINE
  5
28887
  8
寸法
 62
     2
 10
63.6690835383011375
 20
145.1424333611267912
 30
0.0
 11
63.6690835383011517
 21
85.9424333611268452
 31
0.0
  0
INSERT
  5
28888
  8
寸法
 62
     2
  2
_DOT
 10
63.6690835383011375
 20
145.5424333611267969
 30
0.0
 41
0.4
 42
0.4
 43
0.4
 50
90.0
  0
INSERT
  5
28889
  8
寸法
 62
     2
  2
_DOT
 10
63.6690835383011517
 20
85.5424333611268253
 30
0.0
 41
0.4
 42
0.4
 43
0.4
 50
270.0
  0
INSERT
  5
2888A
  8
寸法
  2
*U48
 10
0.0
 20
0.0
 30
0.0
  0
POINT
  5
2888B
  8
DEFPOINTS
 62
     0
 10
75.5924657950996277
 20
145.5424333611267969
 30
0.0
  0
POINT
  5
2888C
  8
DEFPOINTS
 62
     0
 10
75.5924657950996277
 20
85.5424333611268253
 30
0.0
  0
POINT
  5
2888D
  8
DEFPOINTS
 62
     0
 10
63.6690835383011517
 20
85.5424333611268253
 30
0.0
  0
ENDBLK
  5
27FCB
  8
0
  0
BLOCK
  8
0
  2
*D18
 70
     1
 10
0.0
 20
0.0
 30
0.0
  3
*D18
  1

  0
LINE
  5
2887C
  8
寸法
 62
     2
 10
73.5924657950996277
 20
145.5424333611267969
 30
0.0
 11
70.076507432257273
 21
145.5424333611267969
 31
0.0
  0
LINE
  5
2887D
  8
寸法
 62
     2
 10
73.5924657950996277
 20
131.5424333611267969
 30
0.0
 11
70.076507432257273
 21
131.5424333611267969
 31
0.0
  0
LINE
  5
2887E
  8
寸法
 62
     2
 10
70.076507432257273
 20
145.1424333611267912
 30
0.0
 11
70.076507432257273
 21
131.9424333611268025
 31
0.0
  0
INSERT
  5
2887F
  8
寸法
 62
     2
  2
_DOT
 10
70.076507432257273
 20
145.5424333611267969
 30
0.0
 41
0.4
 42
0.4
 43
0.4
 50
90.0
  0
INSERT
  5
28880
  8
寸法
 62
     2
  2
_DOT
 10
70.076507432257273
 20
131.5424333611267969
 30
0.0
 41
0.4
 42
0.4
 43
0.4
 50
270.0
  0
INSERT
  5
28881
  8
寸法
  2
*U47
 10
0.0
 20
0.0
 30
0.0
  0
POINT
  5
28882
  8
DEFPOINTS
 62
     0
 10
75.5924657950996277
 20
145.5424333611267969
 30
0.0
  0
POINT
  5
28883
  8
DEFPOINTS
 62
     0
 10
75.5924657950996277
 20
131.5424333611267969
 30
0.0
  0
POINT
  5
28884
  8
DEFPOINTS
 62
     0
 10
70.076507432257273
 20
131.5424333611267969
 30
0.0
  0
ENDBLK
  5
27FE3
  8
0
  0
BLOCK
  8
0
  2
*D19
 70
     1
 10
0.0
 20
0.0
 30
0.0
  3
*D19
  1

  0
LINE
  5
28873
  8
寸法
 62
     2
 10
73.5924657950996277
 20
131.5424333611267969
 30
0.0
 11
70.0765074322573156
 21
131.5424333611267969
 31
0.0
  0
LINE
  5
28874
  8
寸法
 62
     2
 10
73.5924657950996277
 20
124.342433361126794
 30
0.0
 11
70.0765074322573156
 21
124.342433361126794
 31
0.0
  0
LINE
  5
28875
  8
寸法
 62
     2
 10
70.0765074322573156
 20
131.1424333611267912
 30
0.0
 11
70.0765074322573156
 21
124.7424333611267997
 31
0.0
  0
INSERT
  5
28876
  8
寸法
 62
     2
  2
_DOT
 10
70.0765074322573156
 20
131.5424333611267969
 30
0.0
 41
0.4
 42
0.4
 43
0.4
 50
90.0
  0
INSERT
  5
28877
  8
寸法
 62
     2
  2
_DOT
 10
70.0765074322573156
 20
124.342433361126794
 30
0.0
 41
0.4
 42
0.4
 43
0.4
 50
270.0
  0
INSERT
  5
28878
  8
寸法
  2
*U46
 10
0.0
 20
0.0
 30
0.0
  0
POINT
  5
28879
  8
DEFPOINTS
 62
     0
 10
75.5924657950996277
 20
131.5424333611267969
 30
0.0
  0
POINT
  5
2887A
  8
DEFPOINTS
 62
     0
 10
75.5924657950996277
 20
124.342433361126794
 30
0.0
  0
POINT
  5
2887B
  8
DEFPOINTS
 62
     0
 10
70.0765074322573156
 20
124.342433361126794
 30
0.0
  0
ENDBLK
  5
27FFB
  8
0
  0
BLOCK
  8
0
  2
*D20
 70
     1
 10
0.0
 20
0.0
 30
0.0
  3
*D20
  1

  0
LINE
  5
28869
  8
寸法
 62
     2
 10
73.5924657950996277
 20
124.342433361126794
 30
0.0
 11
70.0765074322573156
 21
124.342433361126794
 31
0.0
  0
LINE
  5
2886A
  8
寸法
 62
     2
 10
73.5924657950996277
 20
122.342433361126794
 30
0.0
 11
70.0765074322573156
 21
122.342433361126794
 31
0.0
  0
LINE
  5
2886B
  8
寸法
 62
     2
 10
70.0765074322573156
 20
124.7424333611267997
 30
0.0
 11
70.0765074322573156
 21
125.1424333611268054
 31
0.0
  0
LINE
  5
2886C
  8
寸法
 62
     2
 10
70.0765074322573156
 20
121.9424333611268025
 30
0.0
 11
70.0765074322573156
 21
121.5424333611267969
 31
0.0
  0
INSERT
  5
2886D
  8
寸法
 62
     2
  2
_DOT
 10
70.0765074322573156
 20
124.342433361126794
 30
0.0
 41
0.4
 42
0.4
 43
0.4
 50
270.0
  0
INSERT
  5
2886E
  8
寸法
 62
     2
  2
_DOT
 10
70.0765074322573156
 20
122.342433361126794
 30
0.0
 41
0.4
 42
0.4
 43
0.4
 50
90.0
  0
INSERT
  5
2886F
  8
寸法
  2
*U45
 10
0.0
 20
0.0
 30
0.0
  0
POINT
  5
28870
  8
DEFPOINTS
 62
     0
 10
75.5924657950996277
 20
124.342433361126794
 30
0.0
  0
POINT
  5
28871
  8
DEFPOINTS
 62
     0
 10
75.5924657950996277
 20
122.342433361126794
 30
0.0
  0
POINT
  5
28872
  8
DEFPOINTS
 62
     0
 10
70.0765074322573156
 20
122.342433361126794
 30
0.0
  0
ENDBLK
  5
28013
  8
0
  0
BLOCK
  8
0
  2
*D21
 70
     1
 10
0.0
 20
0.0
 30
0.0
  3
*D21
  1

  0
LINE
  5
28860
  8
寸法
 62
     2
 10
73.5924657950996277
 20
103.942433361126902
 30
0.0
 11
70.0765074322574293
 21
103.942433361126902
 31
0.0
  0
LINE
  5
28861
  8
寸法
 62
     2
 10
73.5924657950996277
 20
96.7424333611268992
 30
0.0
 11
70.0765074322574293
 21
96.7424333611268992
 31
0.0
  0
LINE
  5
28862
  8
寸法
 62
     2
 10
70.0765074322574293
 20
103.5424333611267969
 30
0.0
 11
70.0765074322574293
 21
97.1424333611269049
 31
0.0
  0
INSERT
  5
28863
  8
寸法
 62
     2
  2
_DOT
 10
70.0765074322574293
 20
103.942433361126902
 30
0.0
 41
0.4
 42
0.4
 43
0.4
 50
90.0
  0
INSERT
  5
28864
  8
寸法
 62
     2
  2
_DOT
 10
70.0765074322574293
 20
96.7424333611268992
 30
0.0
 41
0.4
 42
0.4
 43
0.4
 50
270.0
  0
INSERT
  5
28865
  8
寸法
  2
*U44
 10
0.0
 20
0.0
 30
0.0
  0
POINT
  5
28866
  8
DEFPOINTS
 62
     0
 10
75.5924657950996277
 20
103.942433361126902
 30
0.0
  0
POINT
  5
28867
  8
DEFPOINTS
 62
     0
 10
75.5924657950996277
 20
96.7424333611268992
 30
0.0
  0
POINT
  5
28868
  8
DEFPOINTS
 62
     0
 10
70.0765074322574293
 20
96.7424333611268992
 30
0.0
  0
ENDBLK
  5
28066
  8
0
  0
BLOCK
  8
0
  2
*D22
 70
     1
 10
0.0
 20
0.0
 30
0.0
  3
*D22
  1

  0
LINE
  5
28856
  8
寸法
 62
     2
 10
73.5924657950996277
 20
96.7424333611268992
 30
0.0
 11
70.0765074322573298
 21
96.7424333611268992
 31
0.0
  0
LINE
  5
28857
  8
寸法
 62
     2
 10
73.5924657950996277
 20
94.7424333611268708
 30
0.0
 11
70.076507432257344
 21
94.7424333611268708
 31
0.0
  0
LINE
  5
28858
  8
寸法
 62
     2
 10
70.0765074322573298
 20
97.1424333611269049
 30
0.0
 11
70.0765074322573298
 21
97.5424333611268963
 31
0.0
  0
LINE
  5
28859
  8
寸法
 62
     2
 10
70.076507432257344
 20
94.3424333611268651
 30
0.0
 11
70.076507432257344
 21
93.9424333611268736
 31
0.0
  0
INSERT
  5
2885A
  8
寸法
 62
     2
  2
_DOT
 10
70.0765074322573298
 20
96.7424333611268992
 30
0.0
 41
0.4
 42
0.4
 43
0.4
 50
270.0
  0
INSERT
  5
2885B
  8
寸法
 62
     2
  2
_DOT
 10
70.076507432257344
 20
94.7424333611268708
 30
0.0
 41
0.4
 42
0.4
 43
0.4
 50
90.0
  0
INSERT
  5
2885C
  8
寸法
  2
*U43
 10
0.0
 20
0.0
 30
0.0
  0
POINT
  5
2885D
  8
DEFPOINTS
 62
     0
 10
75.5924657950996277
 20
96.7424333611268992
 30
0.0
  0
POINT
  5
2885E
  8
DEFPOINTS
 62
     0
 10
75.5924657950996277
 20
94.7424333611268708
 30
0.0
  0
POINT
  5
2885F
  8
DEFPOINTS
 62
     0
 10
70.076507432257344
 20
94.7424333611268708
 30
0.0
  0
ENDBLK
  5
28072
  8
0
  0
BLOCK
  8
0
  2
*D23
 70
     1
 10
0.0
 20
0.0
 30
0.0
  3
*D23
  1

  0
LINE
  5
2884D
  8
寸法
 62
     2
 10
73.5924657950996277
 20
94.7424333611268281
 30
0.0
 11
70.0765074322573724
 21
94.7424333611268281
 31
0.0
  0
LINE
  5
2884E
  8
寸法
 62
     2
 10
73.5924657950996277
 20
87.5424333611268537
 30
0.0
 11
70.0765074322573724
 21
87.5424333611268537
 31
0.0
  0
LINE
  5
2884F
  8
寸法
 62
     2
 10
70.0765074322573724
 20
94.3424333611268366
 30
0.0
 11
70.0765074322573724
 21
87.9424333611268452
 31
0.0
  0
INSERT
  5
28850
  8
寸法
 62
     2
  2
_DOT
 10
70.0765074322573724
 20
94.7424333611268281
 30
0.0
 41
0.4
 42
0.4
 43
0.4
 50
90.0
  0
INSERT
  5
28851
  8
寸法
 62
     2
  2
_DOT
 10
70.0765074322573724
 20
87.5424333611268537
 30
0.0
 41
0.4
 42
0.4
 43
0.4
 50
270.0
  0
INSERT
  5
28852
  8
寸法
  2
*U42
 10
0.0
 20
0.0
 30
0.0
  0
POINT
  5
28853
  8
DEFPOINTS
 62
     0
 10
75.5924657950996277
 20
94.7424333611268281
 30
0.0
  0
POINT
  5
28854
  8
DEFPOINTS
 62
     0
 10
75.5924657950996277
 20
87.5424333611268537
 30
0.0
  0
POINT
  5
28855
  8
DEFPOINTS
 62
     0
 10
70.0765074322573724
 20
87.5424333611268537
 30
0.0
  0
ENDBLK
  5
280DF
  8
0
  0
BLOCK
  8
0
  2
*D24
 70
     1
 10
0.0
 20
0.0
 30
0.0
  3
*D24
  1

  0
LINE
  5
28843
  8
寸法
 62
     2
 10
73.5924657950996277
 20
87.5424333611268537
 30
0.0
 11
70.0765074322574009
 21
87.5424333611268537
 31
0.0
  0
LINE
  5
28844
  8
寸法
 62
     2
 10
73.5924657950996277
 20
85.5424333611268537
 30
0.0
 11
70.0765074322574009
 21
85.5424333611268537
 31
0.0
  0
LINE
  5
28845
  8
寸法
 62
     2
 10
70.0765074322574009
 20
87.9424333611268452
 30
0.0
 11
70.0765074322574009
 21
88.3424333611268509
 31
0.0
  0
LINE
  5
28846
  8
寸法
 62
     2
 10
70.0765074322574009
 20
85.1424333611268338
 30
0.0
 11
70.0765074322574009
 21
84.7424333611268565
 31
0.0
  0
INSERT
  5
28847
  8
寸法
 62
     2
  2
_DOT
 10
70.0765074322574009
 20
87.5424333611268537
 30
0.0
 41
0.4
 42
0.4
 43
0.4
 50
270.0
  0
INSERT
  5
28848
  8
寸法
 62
     2
  2
_DOT
 10
70.0765074322574009
 20
85.5424333611268537
 30
0.0
 41
0.4
 42
0.4
 43
0.4
 50
90.0
  0
INSERT
  5
28849
  8
寸法
  2
*U41
 10
0.0
 20
0.0
 30
0.0
  0
POINT
  5
2884A
  8
DEFPOINTS
 62
     0
 10
75.5924657950996277
 20
87.5424333611268537
 30
0.0
  0
POINT
  5
2884B
  8
DEFPOINTS
 62
     0
 10
75.5924657950996277
 20
85.5424333611268537
 30
0.0
  0
POINT
  5
2884C
  8
DEFPOINTS
 62
     0
 10
70.0765074322574009
 20
85.5424333611268537
 30
0.0
  0
ENDBLK
  5
280EB
  8
0
  0
BLOCK
  8
0
  2
*D25
 70
     1
 10
0.0
 20
0.0
 30
0.0
  3
*D25
  1

  0
LINE
  5
2883A
  8
寸法
 62
     2
 10
73.5924657950996277
 20
122.3424333611268935
 30
0.0
 11
70.0765074322574861
 21
122.3424333611268935
 31
0.0
  0
LINE
  5
2883B
  8
寸法
 62
     2
 10
73.5924657950996277
 20
115.1424333611269049
 30
0.0
 11
70.0765074322574861
 21
115.1424333611269049
 31
0.0
  0
LINE
  5
2883C
  8
寸法
 62
     2
 10
70.0765074322574861
 20
121.942433361126902
 30
0.0
 11
70.0765074322574861
 21
115.5424333611268963
 31
0.0
  0
INSERT
  5
2883D
  8
寸法
 62
     2
  2
_DOT
 10
70.0765074322574861
 20
122.3424333611268935
 30
0.0
 41
0.4
 42
0.4
 43
0.4
 50
90.0
  0
INSERT
  5
2883E
  8
寸法
 62
     2
  2
_DOT
 10
70.0765074322574861
 20
115.1424333611269049
 30
0.0
 41
0.4
 42
0.4
 43
0.4
 50
270.0
  0
INSERT
  5
2883F
  8
寸法
  2
*U40
 10
0.0
 20
0.0
 30
0.0
  0
POINT
  5
28840
  8
DEFPOINTS
 62
     0
 10
75.5924657950996277
 20
122.3424333611268935
 30
0.0
  0
POINT
  5
28841
  8
DEFPOINTS
 62
     0
 10
75.5924657950996277
 20
115.1424333611269049
 30
0.0
  0
POINT
  5
28842
  8
DEFPOINTS
 62
     0
 10
70.0765074322574861
 20
115.1424333611269049
 30
0.0
  0
ENDBLK
  5
28216
  8
0
  0
BLOCK
  8
0
  2
*D26
 70
     1
 10
0.0
 20
0.0
 30
0.0
  3
*D26
  1

  0
LINE
  5
28830
  8
寸法
 62
     2
 10
73.5924657950996277
 20
115.1424333611269049
 30
0.0
 11
70.0765074322573298
 21
115.1424333611269049
 31
0.0
  0
LINE
  5
28831
  8
寸法
 62
     2
 10
73.5924657950996277
 20
113.1424333611269049
 30
0.0
 11
70.0765074322573298
 21
113.1424333611269049
 31
0.0
  0
LINE
  5
28832
  8
寸法
 62
     2
 10
70.0765074322573298
 20
115.5424333611268963
 30
0.0
 11
70.0765074322573298
 21
115.942433361126902
 31
0.0
  0
LINE
  5
28833
  8
寸法
 62
     2
 10
70.0765074322573298
 20
112.7424333611268992
 30
0.0
 11
70.0765074322573298
 21
112.3424333611268935
 31
0.0
  0
INSERT
  5
28834
  8
寸法
 62
     2
  2
_DOT
 10
70.0765074322573298
 20
115.1424333611269049
 30
0.0
 41
0.4
 42
0.4
 43
0.4
 50
270.0
  0
INSERT
  5
28835
  8
寸法
 62
     2
  2
_DOT
 10
70.0765074322573298
 20
113.1424333611269049
 30
0.0
 41
0.4
 42
0.4
 43
0.4
 50
90.0
  0
INSERT
  5
28836
  8
寸法
  2
*U39
 10
0.0
 20
0.0
 30
0.0
  0
POINT
  5
28837
  8
DEFPOINTS
 62
     0
 10
75.5924657950996277
 20
115.1424333611269049
 30
0.0
  0
POINT
  5
28838
  8
DEFPOINTS
 62
     0
 10
75.5924657950996277
 20
113.1424333611269049
 30
0.0
  0
POINT
  5
28839
  8
DEFPOINTS
 62
     0
 10
70.0765074322573298
 20
113.1424333611269049
 30
0.0
  0
ENDBLK
  5
28222
  8
0
  0
BLOCK
  8
0
  2
*D27
 70
     1
 10
0.0
 20
0.0
 30
0.0
  3
*D27
  1

  0
LINE
  5
28827
  8
寸法
 62
     2
 10
73.5924657950996277
 20
113.1424333611269049
 30
0.0
 11
70.0765074322574293
 21
113.1424333611269049
 31
0.0
  0
LINE
  5
28828
  8
寸法
 62
     2
 10
73.5924657950996277
 20
105.942433361126902
 30
0.0
 11
70.0765074322574293
 21
105.942433361126902
 31
0.0
  0
LINE
  5
28829
  8
寸法
 62
     2
 10
70.0765074322574293
 20
112.7424333611268992
 30
0.0
 11
70.0765074322574293
 21
106.3424333611268935
 31
0.0
  0
INSERT
  5
2882A
  8
寸法
 62
     2
  2
_DOT
 10
70.0765074322574293
 20
113.1424333611269049
 30
0.0
 41
0.4
 42
0.4
 43
0.4
 50
90.0
  0
INSERT
  5
2882B
  8
寸法
 62
     2
  2
_DOT
 10
70.0765074322574293
 20
105.942433361126902
 30
0.0
 41
0.4
 42
0.4
 43
0.4
 50
270.0
  0
INSERT
  5
2882C
  8
寸法
  2
*U38
 10
0.0
 20
0.0
 30
0.0
  0
POINT
  5
2882D
  8
DEFPOINTS
 62
     0
 10
75.5924657950996277
 20
113.1424333611269049
 30
0.0
  0
POINT
  5
2882E
  8
DEFPOINTS
 62
     0
 10
75.5924657950996277
 20
105.942433361126902
 30
0.0
  0
POINT
  5
2882F
  8
DEFPOINTS
 62
     0
 10
70.0765074322574293
 20
105.942433361126902
 30
0.0
  0
ENDBLK
  5
2822F
  8
0
  0
BLOCK
  8
0
  2
*D28
 70
     1
 10
0.0
 20
0.0
 30
0.0
  3
*D28
  1

  0
LINE
  5
2881D
  8
寸法
 62
     2
 10
73.5924657950996277
 20
105.942433361126902
 30
0.0
 11
70.0765074322573867
 21
105.942433361126902
 31
0.0
  0
LINE
  5
2881E
  8
寸法
 62
     2
 10
73.5924657950996277
 20
103.942433361126902
 30
0.0
 11
70.0765074322573867
 21
103.942433361126902
 31
0.0
  0
LINE
  5
2881F
  8
寸法
 62
     2
 10
70.0765074322573867
 20
106.3424333611268935
 30
0.0
 11
70.0765074322573867
 21
106.7424333611268992
 31
0.0
  0
LINE
  5
28820
  8
寸法
 62
     2
 10
70.0765074322573867
 20
103.5424333611267969
 30
0.0
 11
70.0765074322573867
 21
103.1424333611269049
 31
0.0
  0
INSERT
  5
28821
  8
寸法
 62
     2
  2
_DOT
 10
70.0765074322573867
 20
105.942433361126902
 30
0.0
 41
0.4
 42
0.4
 43
0.4
 50
270.0
  0
INSERT
  5
28822
  8
寸法
 62
     2
  2
_DOT
 10
70.0765074322573867
 20
103.942433361126902
 30
0.0
 41
0.4
 42
0.4
 43
0.4
 50
90.0
  0
INSERT
  5
28823
  8
寸法
  2
*U37
 10
0.0
 20
0.0
 30
0.0
  0
POINT
  5
28824
  8
DEFPOINTS
 62
     0
 10
75.5924657950996277
 20
105.942433361126902
 30
0.0
  0
POINT
  5
28825
  8
DEFPOINTS
 62
     0
 10
75.5924657950996277
 20
103.942433361126902
 30
0.0
  0
POINT
  5
28826
  8
DEFPOINTS
 62
     0
 10
70.0765074322573867
 20
103.942433361126902
 30
0.0
  0
ENDBLK
  5
2823B
  8
0
  0
BLOCK
  8
0
  2
*D29
 70
     1
 10
0.0
 20
0.0
 30
0.0
  3
*D29
  1

  0
LINE
  5
28814
  8
寸法
 62
     2
 10
75.5924657950995851
 20
83.1388763363145529
 30
0.0
 11
75.5924657950995851
 21
80.7671871294503489
 31
0.0
  0
LINE
  5
28815
  8
寸法
 62
     2
 10
82.7924657950996448
 20
83.1388763363145529
 30
0.0
 11
82.7924657950996448
 21
80.7671871294503489
 31
0.0
  0
LINE
  5
28816
  8
寸法
 62
     2
 10
75.992465795099605
 20
80.7671871294503489
 30
0.0
 11
82.3924657950996391
 21
80.7671871294503489
 31
0.0
  0
INSERT
  5
28817
  8
寸法
 62
     2
  2
_DOT
 10
75.5924657950995851
 20
80.7671871294503489
 30
0.0
 41
0.4
 42
0.4
 43
0.4
 50
180.0
  0
INSERT
  5
28818
  8
寸法
 62
     2
  2
_DOT
 10
82.7924657950996448
 20
80.7671871294503489
 30
0.0
 41
0.4
 42
0.4
 43
0.4
  0
INSERT
  5
28819
  8
寸法
  2
*U36
 10
0.0
 20
0.0
 30
0.0
  0
POINT
  5
2881A
  8
DEFPOINTS
 62
     0
 10
75.5924657950995851
 20
85.1388763363145529
 30
0.0
  0
POINT
  5
2881B
  8
DEFPOINTS
 62
     0
 10
82.7924657950996448
 20
85.1388763363145529
 30
0.0
  0
POINT
  5
2881C
  8
DEFPOINTS
 62
     0
 10
82.7924657950996448
 20
80.7671871294503489
 30
0.0
  0
ENDBLK
  5
2826F
  8
0
  0
BLOCK
  8
0
  2
*D30
 70
     1
 10
0.0
 20
0.0
 30
0.0
  3
*D30
  1

  0
LINE
  5
2880B
  8
寸法
 62
     2
 10
82.7924657950996448
 20
83.1388763363145529
 30
0.0
 11
82.7924657950996448
 21
80.7671871294503489
 31
0.0
  0
LINE
  5
2880C
  8
寸法
 62
     2
 10
99.192465795099622
 20
83.1388763363145529
 30
0.0
 11
99.192465795099622
 21
80.7671871294503489
 31
0.0
  0
LINE
  5
2880D
  8
寸法
 62
     2
 10
83.1924657950996504
 20
80.7671871294503489
 30
0.0
 11
98.7924657950996163
 21
80.7671871294503489
 31
0.0
  0
INSERT
  5
2880E
  8
寸法
 62
     2
  2
_DOT
 10
82.7924657950996448
 20
80.7671871294503489
 30
0.0
 41
0.4
 42
0.4
 43
0.4
 50
180.0
  0
INSERT
  5
2880F
  8
寸法
 62
     2
  2
_DOT
 10
99.192465795099622
 20
80.7671871294503489
 30
0.0
 41
0.4
 42
0.4
 43
0.4
  0
INSERT
  5
28810
  8
寸法
  2
*U35
 10
0.0
 20
0.0
 30
0.0
  0
POINT
  5
28811
  8
DEFPOINTS
 62
     0
 10
82.7924657950996448
 20
85.1388763363145529
 30
0.0
  0
POINT
  5
28812
  8
DEFPOINTS
 62
     0
 10
99.192465795099622
 20
85.1388763363145529
 30
0.0
  0
POINT
  5
28813
  8
DEFPOINTS
 62
     0
 10
99.192465795099622
 20
80.7671871294503489
 30
0.0
  0
ENDBLK
  5
28287
  8
0
  0
BLOCK
  8
0
  2
*D31
 70
     1
 10
0.0
 20
0.0
 30
0.0
  3
*D31
  1

  0
LINE
  5
28802
  8
寸法
 62
     2
 10
99.192465795099622
 20
83.1388763363145529
 30
0.0
 11
99.192465795099622
 21
80.7671871294503489
 31
0.0
  0
LINE
  5
28803
  8
寸法
 62
     2
 10
115.5924657950995993
 20
83.1388763363145529
 30
0.0
 11
115.5924657950995993
 21
80.7671871294503489
 31
0.0
  0
LINE
  5
28804
  8
寸法
 62
     2
 10
99.5924657950996277
 20
80.7671871294503489
 30
0.0
 11
115.1924657950995936
 21
80.7671871294503489
 31
0.0
  0
INSERT
  5
28805
  8
寸法
 62
     2
  2
_DOT
 10
99.192465795099622
 20
80.7671871294503489
 30
0.0
 41
0.4
 42
0.4
 43
0.4
 50
180.0
  0
INSERT
  5
28806
  8
寸法
 62
     2
  2
_DOT
 10
115.5924657950995993
 20
80.7671871294503489
 30
0.0
 41
0.4
 42
0.4
 43
0.4
  0
INSERT
  5
28807
  8
寸法
  2
*U34
 10
0.0
 20
0.0
 30
0.0
  0
POINT
  5
28808
  8
DEFPOINTS
 62
     0
 10
99.192465795099622
 20
85.1388763363145529
 30
0.0
  0
POINT
  5
28809
  8
DEFPOINTS
 62
     0
 10
115.5924657950995993
 20
85.1388763363145529
 30
0.0
  0
POINT
  5
2880A
  8
DEFPOINTS
 62
     0
 10
115.5924657950995993
 20
80.7671871294503489
 30
0.0
  0
ENDBLK
  5
2829F
  8
0
  0
BLOCK
  8
0
  2
*D32
 70
     1
 10
0.0
 20
0.0
 30
0.0
  3
*D32
  1

  0
LINE
  5
287F9
  8
寸法
 62
     2
 10
75.5924657950995851
 20
83.5424333611267969
 30
0.0
 11
75.5924657950995851
 21
76.1835706761560232
 31
0.0
  0
LINE
  5
287FA
  8
寸法
 62
     2
 10
115.5924657950995993
 20
83.5424333611267969
 30
0.0
 11
115.5924657950995993
 21
76.1835706761560232
 31
0.0
  0
LINE
  5
287FB
  8
寸法
 62
     2
 10
75.992465795099605
 20
76.1835706761560232
 30
0.0
 11
115.1924657950995936
 21
76.1835706761560232
 31
0.0
  0
INSERT
  5
287FC
  8
寸法
 62
     2
  2
_DOT
 10
75.5924657950995851
 20
76.1835706761560232
 30
0.0
 41
0.4
 42
0.4
 43
0.4
 50
180.0
  0
INSERT
  5
287FD
  8
寸法
 62
     2
  2
_DOT
 10
115.5924657950995993
 20
76.1835706761560232
 30
0.0
 41
0.4
 42
0.4
 43
0.4
  0
INSERT
  5
287FE
  8
寸法
  2
*U33
 10
0.0
 20
0.0
 30
0.0
  0
POINT
  5
287FF
  8
DEFPOINTS
 62
     0
 10
75.5924657950995851
 20
85.5424333611267969
 30
0.0
  0
POINT
  5
28800
  8
DEFPOINTS
 62
     0
 10
115.5924657950995993
 20
85.5424333611267969
 30
0.0
  0
POINT
  5
28801
  8
DEFPOINTS
 62
     0
 10
115.5924657950995993
 20
76.1835706761560232
 30
0.0
  0
ENDBLK
  5
28323
  8
0
  0
BLOCK
  8
0
  2
*U33
 70
     1
 10
0.0
 20
0.0
 30
0.0
  3
*U33
  1

  0
TEXT
  5
28BFA
  8
寸法
 62
     2
 10
92.7924657950996021
 20
73.1585706761560175
 30
0.0
 40
2.399999999999999
  1
400
  0
ENDBLK
  5
28BFC
  8
0
  0
BLOCK
  8
0
  2
*U34
 70
     1
 10
0.0
 20
0.0
 30
0.0
  3
*U34
  1

  0
TEXT
  5
28BFE
  8
寸法
 62
     2
 10
105.6424657950995964
 20
78.6421871294503489
 30
0.0
 40
1.5
  1
164
  0
ENDBLK
  5
28C00
  8
0
  0
BLOCK
  8
0
  2
*U35
 70
     1
 10
0.0
 20
0.0
 30
0.0
  3
*U35
  1

  0
TEXT
  5
28C02
  8
寸法
 62
     2
 10
89.2424657950996334
 20
78.6421871294503489
 30
0.0
 40
1.5
  1
164
  0
ENDBLK
  5
28C04
  8
0
  0
BLOCK
  8
0
  2
*U36
 70
     1
 10
0.0
 20
0.0
 30
0.0
  3
*U36
  1

  0
TEXT
  5
28C06
  8
寸法
 62
     2
 10
77.942465795099622
 20
78.6421871294503489
 30
0.0
 40
1.5
  1
72
  0
ENDBLK
  5
28C08
  8
0
  0
BLOCK
  8
0
  2
*U37
 70
     1
 10
0.0
 20
0.0
 30
0.0
  3
*U37
  1

  0
TEXT
  5
28C0A
  8
寸法
 62
     2
 10
69.4515074322574009
 20
103.8174333611268025
 30
0.0
 40
1.5
  1
20
 50
90.0
  0
ENDBLK
  5
28C0C
  8
0
  0
BLOCK
  8
0
  2
*U38
 70
     1
 10
0.0
 20
0.0
 30
0.0
  3
*U38
  1

  0
TEXT
  5
28C0E
  8
寸法
 62
     2
 10
69.4515074322574435
 20
108.2924333611267969
 30
0.0
 40
1.5
  1
72
 50
90.0
  0
ENDBLK
  5
28C10
  8
0
  0
BLOCK
  8
0
  2
*U39
 70
     1
 10
0.0
 20
0.0
 30
0.0
  3
*U39
  1

  0
TEXT
  5
28C12
  8
寸法
 62
     2
 10
69.451507432257344
 20
113.0174333611268054
 30
0.0
 40
1.5
  1
20
 50
90.0
  0
ENDBLK
  5
28C14
  8
0
  0
BLOCK
  8
0
  2
*U40
 70
     1
 10
0.0
 20
0.0
 30
0.0
  3
*U40
  1

  0
TEXT
  5
28C16
  8
寸法
 62
     2
 10
69.4515074322575146
 20
117.4924333611267997
 30
0.0
 40
1.5
  1
72
 50
90.0
  0
ENDBLK
  5
28C18
  8
0
  0
BLOCK
  8
0
  2
*U41
 70
     1
 10
0.0
 20
0.0
 30
0.0
  3
*U41
  1

  0
TEXT
  5
28C1A
  8
寸法
 62
     2
 10
69.4515074322574009
 20
85.4174333611268253
 30
0.0
 40
1.5
  1
20
 50
90.0
  0
ENDBLK
  5
28C1C
  8
0
  0
BLOCK
  8
0
  2
*U42
 70
     1
 10
0.0
 20
0.0
 30
0.0
  3
*U42
  1

  0
TEXT
  5
28C1E
  8
寸法
 62
     2
 10
69.4515074322573724
 20
89.8924333611268196
 30
0.0
 40
1.5
  1
72
 50
90.0
  0
ENDBLK
  5
28C20
  8
0
  0
BLOCK
  8
0
  2
*U43
 70
     1
 10
0.0
 20
0.0
 30
0.0
  3
*U43
  1

  0
TEXT
  5
28C22
  8
寸法
 62
     2
 10
69.451507432257344
 20
94.6174333611268423
 30
0.0
 40
1.5
  1
20
 50
90.0
  0
ENDBLK
  5
28C24
  8
0
  0
BLOCK
  8
0
  2
*U44
 70
     1
 10
0.0
 20
0.0
 30
0.0
  3
*U44
  1

  0
TEXT
  5
28C26
  8
寸法
 62
     2
 10
69.4515074322574435
 20
99.0924333611268651
 30
0.0
 40
1.5
  1
72
 50
90.0
  0
ENDBLK
  5
28C28
  8
0
  0
BLOCK
  8
0
  2
*U45
 70
     1
 10
0.0
 20
0.0
 30
0.0
  3
*U45
  1

  0
TEXT
  5
28C2A
  8
寸法
 62
     2
 10
69.451507432257344
 20
122.217433361126794
 30
0.0
 40
1.5
  1
20
 50
90.0
  0
ENDBLK
  5
28C2C
  8
0
  0
BLOCK
  8
0
  2
*U46
 70
     1
 10
0.0
 20
0.0
 30
0.0
  3
*U46
  1

  0
TEXT
  5
28C2E
  8
寸法
 62
     2
 10
69.451507432257344
 20
126.6924333611268025
 30
0.0
 40
1.5
  1
72
 50
90.0
  0
ENDBLK
  5
28C30
  8
0
  0
BLOCK
  8
0
  2
*U47
 70
     1
 10
0.0
 20
0.0
 30
0.0
  3
*U47
  1

  0
TEXT
  5
28C32
  8
寸法
 62
     2
 10
69.4515074322573014
 20
136.9174333611267969
 30
0.0
 40
1.5
  1
140
 50
90.0
  0
ENDBLK
  5
28C34
  8
0
  0
BLOCK
  8
0
  2
*U48
 70
     1
 10
0.0
 20
0.0
 30
0.0
  3
*U48
  1

  0
TEXT
  5
28C36
  8
寸法
 62
     2
 10
63.0440835383011517
 20
112.7424333611267997
 30
0.0
 40
2.399999999999999
  1
600
 50
90.0
  0
ENDBLK
  5
28C38
  8
0
  0
BLOCK
  8
0
  2
*U49
 70
     1
 10
0.0
 20
0.0
 30
0.0
  3
*U49
  1

  0
TEXT
  5
28C3A
  8
注釈
 62
     2
 10
204.7399715597819068
 20
164.265172587555611
 30
0.0
 40
2.399999999999999
  1
140
 50
90.0
  0
ENDBLK
  5
28C3C
  8
0
  0
BLOCK
  8
0
  2
*U50
 70
     1
 10
0.0
 20
0.0
 30
0.0
  3
*U50
  1

  0
TEXT
  5
28C3E
  8
寸法
 62
     2
 10
204.7399715597815941
 20
119.7318392542222938
 30
0.0
 40
2.399999999999999
  1
20
 50
90.0
  0
ENDBLK
  5
28C40
  8
0
  0
BLOCK
  8
0
  2
*U51
 70
     1
 10
0.0
 20
0.0
 30
0.0
  3
*U51
  1

  0
TEXT
  5
28C42
  8
寸法
 62
     2
 10
236.132750983005792
 20
109.265178071157095
 30
0.0
 40
2.399999999999999
  1
410
 50
90.0
  0
ENDBLK
  5
28C44
  8
0
  0
BLOCK
  8
0
  2
*U52
 70
     1
 10
0.0
 20
0.0
 30
0.0
  3
*U52
  1

  0
TEXT
  5
28C46
  8
寸法
 62
     2
 10
236.1327509830053941
 20
65.0651823375555836
 30
0.0
 40
2.399999999999999
  1
60
 50
90.0
  0
ENDBLK
  5
28C48
  8
0
  0
BLOCK
  8
0
  2
*U53
 70
     1
 10
0.0
 20
0.0
 30
0.0
  3
*U53
  1

  0
TEXT
  5
28C4A
  8
寸法
 62
     2
 10
236.1327509830051952
 20
165.9318404714252893
 30
0.0
 40
2.399999999999999
  1
130
 50
90.0
  0
ENDBLK
  5
28C4C
  8
0
  0
BLOCK
  8
0
  2
*U54
 70
     1
 10
0.0
 20
0.0
 30
0.0
  3
*U54
  1

  0
TEXT
  5
28C4E
  8
寸法
 62
     2
 10
193.4981361022286137
 20
120.7318392542222938
 30
0.0
 40
2.399999999999999
  1
600
 50
90.0
  0
ENDBLK
  5
28C50
  8
0
  0
BLOCK
  8
0
  2
*U55
 70
     1
 10
0.0
 20
0.0
 30
0.0
  3
*U55
  1

  0
TEXT
  5
28C52
  8
寸法
 62
     2
 10
213.6801465303348948
 20
201.252443631699407
 30
0.0
 40
2.399999999999999
  1
18
  0
ENDBLK
  5
28C54
  8
0
  0
BLOCK
  8
0
  2
*U56
 70
     1
 10
0.0
 20
0.0
 30
0.0
  3
*U56
  1

  0
TEXT
  5
28C56
  8
寸法
 62
     2
 10
204.739971559781111
 20
58.3985059208890007
 30
0.0
 40
2.399999999999999
  1
20
 50
90.0
  0
ENDBLK
  5
28C58
  8
0
  0
BLOCK
  8
0
  2
*U57
 70
     1
 10
0.0
 20
0.0
 30
0.0
  3
*U57
  1

  0
TEXT
  5
28C5A
  8
寸法
 62
     2
 10
204.7399715597811962
 20
73.5318392542223336
 30
0.0
 40
2.399999999999999
  1
72
 50
90.0
  0
ENDBLK
  5
28C5C
  8
0
  0
BLOCK
  8
0
  2
*U58
 70
     1
 10
0.0
 20
0.0
 30
0.0
  3
*U58
  1

  0
TEXT
  5
28C5E
  8
寸法
 62
     2
 10
204.739971559781111
 20
89.065172587555665
 30
0.0
 40
2.399999999999999
  1
20
 50
90.0
  0
ENDBLK
  5
28C60
  8
0
  0
BLOCK
  8
0
  2
*U59
 70
     1
 10
0.0
 20
0.0
 30
0.0
  3
*U59
  1

  0
TEXT
  5
28C62
  8
寸法
 62
     2
 10
204.7399715597811962
 20
104.198505920889005
 30
0.0
 40
2.399999999999999
  1
72
 50
90.0
  0
ENDBLK
  5
28C64
  8
0
  0
ENDSEC
  0
SECTION
  2
ENTITIES
  0
LINE
  5
278AC
  8
枠横ライン
 10
33.026090744934443
 20
26.9891317130661399
 30
0.0
 11
313.2502288628371048
 21
26.9887317130661302
 31
0.0
  0
LINE
  5
278AD
  8
枠横ライン
 10
313.2502226373043754
 20
39.6704963708763003
 30
0.0
 11
33.0260845194017705
 21
39.6708963708763065
 31
0.0
  0
LINE
  5
278AE
  8
枠ライン
 10
227.5315357984584921
 20
33.3299156768369826
 30
0.0
 11
170.8475155515004076
 21
33.3299156768369826
 31
0.0
  0
TEXT
  5
278AF
  8
枠文字
 10
105.5017170799339965
 20
29.6251939962280915
 30
0.0
 40
1.686729999999999
  1
図
 72
     1
 11
106.2888577466006979
 21
29.6251939962280915
 31
0.0
  0
LINE
  5
278B0
  8
枠ライン
 10
104.7888577466007973
 20
26.989531713074971
 30
0.0
 11
104.7888577466007973
 21
39.6707939346283709
 31
0.0
  0
LINE
  5
278B1
  8
枠ライン
 10
104.7888577466007973
 20
39.6707939346283709
 30
0.0
 11
104.7888577466007973
 21
26.989531713074971
 31
0.0
  0
LINE
  5
278B2
  8
枠ライン
 10
104.7888577466007973
 20
26.989131713075011
 30
0.0
 11
104.7888577466007973
 21
39.6707939346283709
 31
0.0
  0
LINE
  5
278B3
  8
枠ライン
 10
104.7888577466007973
 20
39.6707939346283709
 30
0.0
 11
104.7888577466007973
 21
26.989131713075011
 31
0.0
  0
LINE
  5
278B4
  8
枠ライン
 10
107.7889577466007012
 20
26.989131713075011
 30
0.0
 11
107.7889577466007012
 21
39.6707896521992609
 31
0.0
  0
LINE
  5
278B5
  8
枠ライン
 10
107.7889577466007012
 20
39.6707896521992609
 30
0.0
 11
107.7889577466007012
 21
26.989131713075011
 31
0.0
  0
LINE
  5
278B6
  8
枠ライン
 10
94.788717746600696
 20
26.989531713074971
 30
0.0
 11
94.788717746600696
 21
39.6708082091160179
 31
0.0
  0
LINE
  5
278B7
  8
枠ライン
 10
33.0260884079813835
 20
31.2165939346228107
 30
0.0
 11
104.7888616351802966
 21
31.2165939346228107
 31
0.0
  0
ARC
  5
278B8
  8
枠文字
 10
42.501923996559178
 20
29.3877741789030686
 30
0.0
 40
0.150643
 50
268.8480000000012069
 51
315.1879999999978281
  0
ARC
  5
278B9
  8
枠文字
 10
42.4961239965592199
 20
29.3941741789030608
 30
0.0
 40
0.157019
 50
225.7909999999988031
 51
271.0309999999976185
  0
LINE
  5
278BA
  8
枠文字
 10
42.4989239965591921
 20
29.5503741789030698
 30
0.0
 11
42.6088239965591811
 21
29.503874178903029
 31
0.0
  0
ARC
  5
278BB
  8
枠文字
 10
42.4918239965592832
 20
29.3973741789030498
 30
0.0
 40
0.149708
 50
134.6539999999995985
 51
181.4349999999990075
  0
LINE
  5
278BC
  8
枠文字
 10
42.3866239965591873
 20
29.503874178903029
 30
0.0
 11
42.4989239965591921
 21
29.5503741789030698
 31
0.0
  0
ARC
  5
278BD
  8
枠文字
 10
42.5080239965591886
 20
29.3961741789030704
 30
0.0
 40
0.147524
 50
359.0109999999996262
 51
46.8889999999996974
  0
ARC
  5
278BE
  8
枠文字
 10
42.5020239965592097
 20
29.3918741789030697
 30
0.0
 40
0.153466
 50
314.0869999999977153
 51
0.647999999999022
  0
ARC
  5
278BF
  8
枠文字
 10
42.4987239965591925
 20
29.3909741789030683
 30
0.0
 40
0.156603
 50
179.0289999999995985
 51
224.2689999999992949
  0
ARC
  5
278C0
  8
枠文字
 10
42.5086239965592085
 20
28.5591741789030813
 30
0.0
 40
0.146891
 50
313.001999999997679
 51
1.0990000000005979
  0
ARC
  5
278C1
  8
枠文字
 10
42.4931239965592908
 20
28.5587741789030716
 30
0.0
 40
0.151049
 50
178.7850000000005934
 51
225.1259999999994079
  0
ARC
  5
278C2
  8
枠文字
 10
42.5017239965592921
 20
28.5515741789030493
 30
0.0
 40
0.14642
 50
268.8889999999972247
 51
316.9869999999976926
  0
ARC
  5
278C3
  8
枠文字
 10
42.4968239965592076
 20
28.5589741789030711
 30
0.0
 40
0.153785
 50
224.2250000000042007
 51
270.7849999999988881
  0
LINE
  5
278C4
  8
枠文字
 10
42.3866239965591873
 20
28.6718741789030389
 30
0.0
 11
42.4989239965591921
 21
28.7183741789030798
 31
0.0
  0
LINE
  5
278C5
  8
枠文字
 10
42.4989239965591921
 20
28.7183741789030798
 30
0.0
 11
42.6088239965591811
 21
28.6718741789030389
 31
0.0
  0
ARC
  5
278C6
  8
枠文字
 10
42.4914239965591989
 20
28.5655741789030593
 30
0.0
 40
0.149305
 50
134.592000000000894
 51
181.3719999999995025
  0
ARC
  5
278C7
  8
枠文字
 10
42.5090239965592218
 20
28.5645741789030296
 30
0.0
 40
0.146502
 50
358.9650000000006003
 51
47.0629999999988868
  0
LINE
  5
278C8
  8
枠ライン
 10
33.0260884079813835
 20
35.4436939346228073
 30
0.0
 11
104.7888616351802966
 21
35.4436939346228073
 31
0.0
  0
ARC
  5
278C9
  8
枠文字
 10
42.4987239965591925
 20
33.6184364004508609
 30
0.0
 40
0.156603
 50
179.0289999999995985
 51
224.2689999999992949
  0
ARC
  5
278CA
  8
枠文字
 10
42.4961239965592199
 20
33.6216364004508605
 30
0.0
 40
0.157019
 50
225.7909999999988031
 51
271.0309999999976185
  0
ARC
  5
278CB
  8
枠文字
 10
42.501923996559178
 20
33.6152364004508684
 30
0.0
 40
0.150643
 50
268.8480000000012069
 51
315.1879999999978281
  0
ARC
  5
278CC
  8
枠文字
 10
42.5020239965592097
 20
33.6193364004508624
 30
0.0
 40
0.153466
 50
314.0869999999977153
 51
0.647999999999022
  0
ARC
  5
278CD
  8
枠文字
 10
42.5080239965591886
 20
33.623636400450863
 30
0.0
 40
0.147524
 50
359.0109999999996262
 51
46.8889999999996974
  0
LINE
  5
278CE
  8
枠文字
 10
42.3866239965591873
 20
33.7313364004508287
 30
0.0
 11
42.4989239965591921
 21
33.7778364004508731
 31
0.0
  0
ARC
  5
278CF
  8
枠文字
 10
42.4918239965592832
 20
33.6248364004508531
 30
0.0
 40
0.149708
 50
134.6539999999995985
 51
181.4349999999990075
  0
LINE
  5
278D0
  8
枠文字
 10
42.4989239965591921
 20
33.7778364004508731
 30
0.0
 11
42.6088239965591811
 21
33.7313364004508287
 31
0.0
  0
ARC
  5
278D1
  8
枠文字
 10
42.5090239965592218
 20
32.7920364004508329
 30
0.0
 40
0.146502
 50
358.9650000000006003
 51
47.0629999999988868
  0
ARC
  5
278D2
  8
枠文字
 10
42.4914239965591989
 20
32.793036400450859
 30
0.0
 40
0.149305
 50
134.592000000000894
 51
181.3719999999995025
  0
ARC
  5
278D3
  8
枠文字
 10
42.4931239965592908
 20
32.7862364004508606
 30
0.0
 40
0.151049
 50
178.7850000000005934
 51
225.1259999999994079
  0
ARC
  5
278D4
  8
枠文字
 10
42.4968239965592076
 20
32.7864364004508673
 30
0.0
 40
0.153785
 50
224.2250000000042007
 51
270.7849999999988881
  0
ARC
  5
278D5
  8
枠文字
 10
42.5017239965592921
 20
32.779036400450849
 30
0.0
 40
0.14642
 50
268.8889999999972247
 51
316.9869999999976926
  0
ARC
  5
278D6
  8
枠文字
 10
42.5086239965592085
 20
32.7866364004508668
 30
0.0
 40
0.146891
 50
313.001999999997679
 51
1.0990000000005979
  0
LINE
  5
278D7
  8
枠文字
 10
42.4989239965591921
 20
32.9458364004508724
 30
0.0
 11
42.6088239965591811
 21
32.8993364004508422
 31
0.0
  0
LINE
  5
278D8
  8
枠文字
 10
42.3866239965591873
 20
32.8993364004508422
 30
0.0
 11
42.4989239965591921
 21
32.9458364004508724
 31
0.0
  0
LINE
  5
278D9
  8
枠文字
 10
42.3866239965591873
 20
37.1264364004508423
 30
0.0
 11
42.4989239965591921
 21
37.1729364004508795
 31
0.0
  0
LINE
  5
278DA
  8
枠文字
 10
42.4989239965591921
 20
37.1729364004508795
 30
0.0
 11
42.6088239965591811
 21
37.1264364004508423
 31
0.0
  0
ARC
  5
278DB
  8
枠文字
 10
42.5086239965592085
 20
37.0137364004508811
 30
0.0
 40
0.146891
 50
313.001999999997679
 51
1.0990000000005979
  0
ARC
  5
278DC
  8
枠文字
 10
42.5017239965592921
 20
37.0061364004508633
 30
0.0
 40
0.14642
 50
268.8889999999972247
 51
316.9869999999976926
  0
ARC
  5
278DD
  8
枠文字
 10
42.4968239965592076
 20
37.0135364004508816
 30
0.0
 40
0.153785
 50
224.2250000000042007
 51
270.7849999999988881
  0
ARC
  5
278DE
  8
枠文字
 10
42.4931239965592908
 20
37.0133364004508678
 30
0.0
 40
0.151049
 50
178.7850000000005934
 51
225.1259999999994079
  0
ARC
  5
278DF
  8
枠文字
 10
42.4914239965591989
 20
37.0201364004508733
 30
0.0
 40
0.149305
 50
134.592000000000894
 51
181.3719999999995025
  0
ARC
  5
278E0
  8
枠文字
 10
42.5090239965592218
 20
37.019136400450833
 30
0.0
 40
0.146502
 50
358.9650000000006003
 51
47.0629999999988868
  0
LINE
  5
278E1
  8
枠文字
 10
42.4989239965591921
 20
38.0049364004508803
 30
0.0
 11
42.6088239965591811
 21
37.958436400450843
 31
0.0
  0
ARC
  5
278E2
  8
枠文字
 10
42.4918239965592832
 20
37.8519364004508532
 30
0.0
 40
0.149708
 50
134.6539999999995985
 51
181.4349999999990075
  0
LINE
  5
278E3
  8
枠文字
 10
42.3866239965591873
 20
37.958436400450843
 30
0.0
 11
42.4989239965591921
 21
38.0049364004508803
 31
0.0
  0
ARC
  5
278E4
  8
枠文字
 10
42.5080239965591886
 20
37.8507364004508702
 30
0.0
 40
0.147524
 50
359.0109999999996262
 51
46.8889999999996974
  0
ARC
  5
278E5
  8
枠文字
 10
42.5020239965592097
 20
37.8464364004508695
 30
0.0
 40
0.153466
 50
314.0869999999977153
 51
0.647999999999022
  0
ARC
  5
278E6
  8
枠文字
 10
42.501923996559178
 20
37.8423364004508684
 30
0.0
 40
0.150643
 50
268.8480000000012069
 51
315.1879999999978281
  0
ARC
  5
278E7
  8
枠文字
 10
42.4961239965592199
 20
37.8487364004508606
 30
0.0
 40
0.157019
 50
225.7909999999988031
 51
271.0309999999976185
  0
ARC
  5
278E8
  8
枠文字
 10
42.4987239965591925
 20
37.8455364004508681
 30
0.0
 40
0.156603
 50
179.0289999999995985
 51
224.2689999999992949
  0
LINE
  5
278E9
  8
枠ライン
 10
104.7888577466007973
 20
38.2399517130749871
 30
0.0
 11
104.7888577466007973
 21
39.6707939346283709
 31
0.0
  0
TEXT
  5
278EA
  8
枠文字
 10
105.5017170799339965
 20
35.9503939962281507
 30
0.0
 40
1.686729999999999
  1
検
 72
     1
 11
106.2888577466006979
 21
35.9503939962281507
 31
0.0
  0
LINE
  5
278EB
  8
枠ライン
 10
149.5484447691154912
 20
39.6707300435055927
 30
0.0
 11
149.5484261468897103
 21
26.9889798495936795
 31
0.0
  0
LINE
  5
278EC
  8
枠ライン
 10
170.8475155515004076
 20
39.6706996405989401
 30
0.0
 11
170.8475155515004076
 21
26.989131713075011
 31
0.0
  0
LINE
  5
278ED
  8
枠ライン
 10
170.8475155515004076
 20
26.989131713075011
 30
0.0
 11
170.8475155515004076
 21
39.6706996405989401
 31
0.0
  0
LINE
  5
278EE
  8
枠ライン
 10
122.2892577466007964
 20
39.6707689540537274
 30
0.0
 11
122.2892577466007964
 21
26.989131713075011
 31
0.0
  0
TEXT
  5
278EF
  8
枠文字
 10
171.8485155515002987
 20
31.0149787630419702
 30
0.0
 40
1.9678500000000001
  1
PART 
  0
LINE
  5
278F0
  8
枠ライン
 10
122.2892560442727046
 20
33.3300549465496374
 30
0.0
 11
149.5484354580027002
 21
33.3298549465496308
 31
0.0
  0
TEXT
  5
278F1
  8
枠文字
 10
150.6991575732488116
 20
37.1932830593937993
 30
0.0
 40
1.9678500000000001
  1
SCALE
  0
LINE
  5
278F2
  8
枠ライン
 10
170.8475155515004076
 20
34.4891517130749605
 30
0.0
 11
170.8475155515004076
 21
39.6706996405989401
 31
0.0
  0
TEXT
  5
278F3
  8
枠文字
 10
171.8485155515004124
 20
37.3337858513027427
 30
0.0
 40
1.9678500000000001
  1
TITLE
  0
TEXT
  5
278F4
  8
枠文字
 10
293.5675357984583798
 20
36.8490231015515235
 30
0.0
 40
1.9678500000000001
  1
No.
  0
LINE
  5
278F5
  8
枠横ライン
 10
292.5035357984583015
 20
26.9887317130750013
 30
0.0
 11
292.5035357984583015
 21
39.6705259852941978
 31
0.0
  0
LINE
  5
278F6
  8
枠ライン
 10
227.5315357984584921
 20
34.4887517130750112
 30
0.0
 11
227.5315357984584921
 21
26.9887317130750013
 31
0.0
  0
LINE
  5
278F7
  8
枠ライン
 10
227.5315357984584921
 20
39.6706187281970202
 30
0.0
 11
227.5315357984584921
 21
34.4887517130750112
 31
0.0
  0
TEXT
  5
278F8
  8
枠文字
 10
146.9656295307094922
 20
28.7479515114191884
 30
0.0
 40
2.399999999999999
  1
 　 1:3 1:10
  0
TEXT
  5
278F9
  8
枠文字
 10
182.4926831616132858
 20
27.9761067907300287
 30
0.0
 40
2.399999999999999
  1
DWB－FWTA 
  0
TEXT
  5
278FA
  8
枠文字
 10
182.4926831616132858
 20
34.2809717693661185
 30
0.0
 40
2.399999999999999
  1
外来担当医勤務日時掲示板
  0
LINE
  5
278FB
  8
枠横ライン
 10
33.0263645497864218
 20
218.8059533489048079
 30
0.0
 11
313.2505026676890907
 21
218.8055533489047093
 31
0.0
  0
LINE
  5
278FC
  8
枠横ライン
 10
33.026090744934443
 20
26.9891317130661399
 30
0.0
 11
33.0263645497864218
 21
218.8059533489048079
 31
0.0
  0
LINE
  5
278FD
  8
枠横ライン
 10
313.2502288628371048
 20
26.9887317130661302
 30
0.0
 11
313.2505026676890907
 21
218.8055533489047093
 31
0.0
  0
TEXT
  5
278FE
  8
枠文字
 10
123.5296560442724001
 20
30.859004739978019
 30
0.0
 40
1.9678500000000001
  1
DRAWING
  0
TEXT
  5
278FF
  8
枠文字
 10
123.5296577466007051
 20
37.1932830593937993
 30
0.0
 40
1.9678500000000001
  1
DATE
  0
TEXT
  5
27900
  8
枠文字
 10
131.876548873082811
 20
34.4751651896111468
 30
0.0
 40
2.0
  1
2024．4．1
  0
TEXT
  5
27901
  8
枠文字
 10
141.2814965462260091
 20
28.6100710746704614
 30
0.0
 40
2.0
  1
高　桑
  0
LINE
  5
27913
  8
注釈
 10
96.8641168626451758
 20
163.115003029746191
 30
0.0
 11
160.6293796998228913
 21
163.115003029746191
 31
0.0
  0
TEXT
  5
27914
  8
注釈
 10
97.3762323194147825
 20
163.7931064787109108
 30
0.0
 40
2.5
  1
表示基板：タモ材練付板t18　クリア塗装仕上
  0
TEXT
  5
27915
  8
注釈
 10
149.3697899858595122
 20
159.4417741026954047
 30
0.0
 40
2.5
  1
UV印刷
  0
TEXT
  5
27919
  8
注釈
 10
129.6998027448167932
 20
78.5362637152512235
 30
0.0
 40
2.5
  1
S=1:10
  0
TEXT
  5
2791A
  8
注釈
 10
278.6343886651941943
 20
47.7887913407880305
 30
0.0
 40
2.5
  1
S=1:3
  0
LINE
  5
27954
  8
注釈
  6
BYBLOCK
 10
124.7153091547167065
 20
143.2635076537926864
 30
0.0
 11
180.2127701124186956
 21
143.2635077724355881
 31
0.0
  0
TEXT
  5
27955
  8
注釈
  6
CONTINUOUS
 10
124.7200414044697965
 20
143.8817857044666937
 30
0.0
 40
2.5
  1
表示基板：白アクリルt3艶ありUV印刷
  0
LINE
  5
27A87
  8
壁
 10
227.7532393859339948
 20
58.2697437595459533
 30
0.0
 11
220.6821715740684908
 21
51.1986759476806412
 31
0.0
  0
LINE
  5
27A88
  8
壁
 10
220.6821419524389967
 20
203.5610335259300996
 30
0.0
 11
220.6822103765624945
 21
134.6548918692002133
 31
0.0
  0
LINE
  5
27A89
  8
壁
 10
227.7532393859339948
 20
55.7697437595459533
 30
0.0
 11
220.6821715740684908
 21
48.6986759476806412
 31
0.0
  0
LINE
  5
27A8A
  8
壁
 10
227.7532296501775022
 20
203.2272295721649868
 30
0.0
 11
220.6821618383119983
 21
196.1561617602997103
 31
0.0
  0
LINE
  5
27A8B
  8
壁
 10
227.7532296501775022
 20
205.7272295721649868
 30
0.0
 11
220.6821618383119983
 21
198.6561617602997103
 31
0.0
  0
LINE
  5
27A8C
  8
壁
 10
227.7532296501775022
 20
200.7272295721649868
 30
0.0
 11
220.6821618383119983
 21
193.6561617602997103
 31
0.0
  0
LINE
  5
27A8D
  8
壁
 10
220.6822343778997038
 20
121.8031038872154994
 30
0.0
 11
220.6822989715548999
 21
55.4562760655484226
 31
0.0
  0
LINE
  5
27A8E
  8
PL1
 10
218.2801465303348891
 20
190.198505920889005
 30
0.0
 11
212.2801465303348891
 21
190.198505920889005
 31
0.0
  0
LINE
  5
27A8F
  8
PL1
 10
212.2801465303348891
 20
190.198505920889005
 30
0.0
 11
212.2801465303348891
 21
134.6548918692002133
 31
0.0
  0
LINE
  5
27A90
  8
PL1
 10
212.2801465303348891
 20
118.198505920889005
 30
0.0
 11
214.1468131970015065
 21
118.198505920889005
 31
0.0
  0
LINE
  5
27A91
  8
PL1
 10
214.1468131970015065
 20
118.198505920889005
 30
0.0
 11
214.1468131970015065
 21
107.0009306753379974
 31
0.0
  0
LINE
  5
27A92
  8
PL1
 10
214.1468131970015065
 20
107.0009306753379974
 30
0.0
 11
214.1468131970015065
 21
94.1985059208890334
 31
0.0
  0
LINE
  5
27A93
  8
PL1
 10
214.1468131970015065
 20
94.1985059208890334
 30
0.0
 11
212.2801465303348891
 21
94.1985059208890334
 31
0.0
  0
LINE
  5
27A94
  8
PL1
 10
212.2801465303348891
 20
94.1985059208890334
 30
0.0
 11
212.2801465303348891
 21
87.5318392542223762
 31
0.0
  0
LINE
  5
27A95
  8
PL1
 10
212.2801465303348891
 20
87.5318392542223762
 30
0.0
 11
214.1468131970015065
 21
87.5318392542223762
 31
0.0
  0
LINE
  5
27A96
  8
PL1
 10
214.1468131970015065
 20
87.5318392542223762
 30
0.0
 11
214.1468131970015065
 21
63.5318392542223691
 31
0.0
  0
LINE
  5
27A97
  8
PL1
 10
214.1468131970015065
 20
63.5318392542223691
 30
0.0
 11
212.2801465303348891
 21
63.5318392542223691
 31
0.0
  0
LINE
  5
27A98
  8
PL1
 10
212.2801465303348891
 20
63.5318392542223691
 30
0.0
 11
212.2801465303348891
 21
56.8651725875557119
 31
0.0
  0
LINE
  5
27A99
  8
PL1
 10
212.2801465303348891
 20
56.8651725875557119
 30
0.0
 11
218.2801465303348891
 21
56.8651725875557119
 31
0.0
  0
LINE
  5
27A9A
  8
PL2
 10
214.1468131970015065
 20
118.198505920889005
 30
0.0
 11
214.1468131970015065
 21
107.0009306753379974
 31
0.0
  0
LINE
  5
27A9B
  8
PL2
 10
214.1468131970015065
 20
107.0009306753379974
 30
0.0
 11
214.1468131970015065
 21
94.1985059208890334
 31
0.0
  0
LINE
  5
27A9C
  8
PL2
 10
214.1468131970015065
 20
94.1985059208890334
 30
0.0
 11
213.4801465303349914
 21
94.1985059208890334
 31
0.0
  0
LINE
  5
27A9D
  8
PL2
 10
213.4801465303349914
 20
94.1985059208890334
 30
0.0
 11
213.4801465303349914
 21
106.3990320743931051
 31
0.0
  0
LINE
  5
27A9E
  8
PL2
 10
213.4801465303349914
 20
106.3990350439415948
 30
0.0
 11
213.4801465303349914
 21
118.198505920889005
 31
0.0
  0
LINE
  5
27A9F
  8
PL2
 10
213.4801465303349914
 20
118.198505920889005
 30
0.0
 11
214.1468131970015918
 21
118.198505920889005
 31
0.0
  0
LINE
  5
27AA0
  8
PL3
 10
212.2801465303348891
 20
118.198505920889005
 30
0.0
 11
212.2801465303348891
 21
105.4287189690336959
 31
0.0
  0
LINE
  5
27AA1
  8
PL3
 10
212.2801465303348891
 20
106.3782116732622995
 30
0.0
 11
212.2801465303348891
 21
94.1985059208890334
 31
0.0
  0
LINE
  5
27AA2
  8
PL3
 10
212.2801465303348891
 20
94.1985059208890334
 30
0.0
 11
212.9468131970016032
 21
94.1985059208890334
 31
0.0
  0
LINE
  5
27AA3
  8
PL3
 10
212.9468131970016032
 20
94.1985059208890334
 30
0.0
 11
212.9468131970014895
 21
106.3782116732622995
 31
0.0
  0
LINE
  5
27AA4
  8
PL3
 10
212.9468131970016032
 20
105.8657017106082066
 30
0.0
 11
212.9468131970016032
 21
118.198505920889005
 31
0.0
  0
LINE
  5
27AA5
  8
PL3
 10
212.9468131970016032
 20
118.198505920889005
 30
0.0
 11
212.2801465303348891
 21
118.198505920889005
 31
0.0
  0
LINE
  5
27AA7
  8
PL3
 10
213.4801465303349914
 20
106.3990350439415948
 30
0.0
 11
213.4801465303349914
 21
109.8651725875557048
 31
0.0
  0
LINE
  5
27AA9
  8
PL3
 10
212.9468131970016032
 20
111.8651725875557048
 30
0.0
 11
213.4801465303349914
 21
111.8651725875557048
 31
0.0
  0
LINE
  5
27AAB
  8
PL1
 10
214.1468131970015065
 20
87.5318392542223762
 30
0.0
 11
214.1468131970015065
 21
63.5318392542223691
 31
0.0
  0
LINE
  5
27AAC
  8
PL2
 10
214.1468131970015065
 20
87.5318392542223762
 30
0.0
 11
214.1468131970015065
 21
63.5318392542223691
 31
0.0
  0
LINE
  5
27AAD
  8
PL2
 10
213.4801465303349914
 20
63.5318392542223691
 30
0.0
 11
213.4801465303349914
 21
87.5318392542223762
 31
0.0
  0
LINE
  5
27AAE
  8
PL3
 10
212.2801465303348891
 20
87.5318392542223762
 30
0.0
 11
212.2801465303348891
 21
63.5318392542223691
 31
0.0
  0
LINE
  5
27AAF
  8
PL3
 10
212.9468131970016032
 20
63.5318392542223691
 30
0.0
 11
212.9468131970016032
 21
87.5318392542223762
 31
0.0
  0
LINE
  5
27AB0
  8
PL3
 10
213.4801465303349914
 20
80.1985059208890476
 30
0.0
 11
213.4801465303349914
 21
79.1985059208890334
 31
0.0
  0
LINE
  5
27AB1
  8
PL3
 10
213.4801465303349914
 20
79.1985059208890334
 30
0.0
 11
212.9468131970016032
 21
79.1985059208890334
 31
0.0
  0
LINE
  5
27AB2
  8
PL3
 10
212.9468131970016032
 20
71.8651725875557048
 30
0.0
 11
213.4801465303349914
 21
71.8651725875557048
 31
0.0
  0
LINE
  5
27AB3
  8
PL3
 10
213.4801465303349914
 20
71.8651725875557048
 30
0.0
 11
213.4801465303349914
 21
80.1985059208890476
 31
0.0
  0
LINE
  5
27AB4
  8
壁
 10
227.7532393859339948
 20
60.6221937519802623
 30
0.0
 11
220.6821715740684908
 21
53.5511259401149573
 31
0.0
  0
LINE
  5
27AB5
  8
壁
 10
220.6822989715548999
 20
55.4562760655484226
 30
0.0
 11
220.6822989715548999
 21
45.5595241274251919
 31
0.0
  0
LINE
  5
27AB6
  8
注釈
  6
BYBLOCK
 10
240.4728115865272002
 20
132.0884657295482043
 30
0.0
 11
295.8218535413496966
 21
132.0884658500579008
 31
0.0
  0
LINE
  5
27ABA
  8
注釈
 10
230.5689989621658924
 20
195.8399621238139048
 30
0.0
 11
294.0823252970487829
 21
195.8399621238139048
 31
0.0
  0
TEXT
  5
27ABB
  8
注釈
 10
231.0811144189356128
 20
196.5180655727787098
 30
0.0
 40
2.5
  1
表示基板：タモ材練付板t18　クリア塗装仕上
  0
TEXT
  5
27ABC
  8
注釈
 10
282.9730964449478847
 20
192.5362499135044061
 30
0.0
 40
2.5
  1
UV印刷
  0
LINE
  5
27ABD
  8
注釈
  6
BYBLOCK
 10
241.0061449198605885
 20
145.8647281177672141
 30
0.0
 11
262.6291668416454854
 21
145.8647281751661922
 31
0.0
  0
TEXT
  5
27ABE
  8
注釈
  6
CONTINUOUS
 10
241.0108771696135932
 20
147.3505641649487927
 30
0.0
 40
2.5
  1
マグネットt1.6
  0
LINE
  5
27AC0
  8
注釈
  6
BYBLOCK
 10
241.0061449198605885
 20
162.5313947844338998
 30
0.0
 11
266.6041113680781223
 21
162.5313948373274116
 31
0.0
  0
TEXT
  5
27AC1
  8
注釈
  6
CONTINUOUS
 10
241.0108771696135932
 20
164.0172308316155068
 30
0.0
 40
2.5
  1
スチール複合板t2
  0
LINE
  5
27AD4
  8
PL3
 10
213.4801465303349914
 20
118.198505920889005
 30
0.0
 11
212.9468131970016032
 21
118.198505920889005
 31
0.0
  0
LINE
  5
27AD5
  8
注釈
  6
BYBLOCK
 10
242.8061449198604862
 20
91.1700930227913346
 30
0.0
 11
262.8796650649023832
 21
91.1700930688790834
 31
0.0
  0
TEXT
  5
27AD6
  8
注釈
  6
CONTINUOUS
 10
242.8108771696134909
 20
91.7883710734653562
 30
0.0
 40
2.5
  1
小口：単板貼り
  0
LINE
  5
27AD8
  8
壁
 10
220.6822144991513142
 20
132.3626101207152885
 30
0.0
 11
220.6822343778997038
 21
121.8031038872154994
 31
0.0
  0
LINE
  5
27AD9
  8
PL1
 10
218.2801465303348891
 20
190.198505920889005
 30
0.0
 11
212.2801465303348891
 21
190.198505920889005
 31
0.0
  0
LINE
  5
27ADA
  8
_0-7_作図レイヤ
  6
CONTINUOUS
 62
     5
 10
218.7920677210879887
 20
161.7318392542221943
 30
0.0
 11
218.6155357751044903
 21
161.731839254222308
 31
0.0
  0
LINE
  5
27ADB
  8
_0-7_作図レイヤ
  6
CONTINUOUS
 62
     5
 10
218.515535775104496
 20
161.6318392542223989
 30
0.0
 11
218.515535775104496
 21
151.9985059208889879
 31
0.0
  0
LINE
  5
27ADC
  8
_0-7_作図レイヤ
  6
CONTINUOUS
 62
     5
 10
219.515535775104496
 20
141.731839254222308
 30
0.0
 11
220.015535775104496
 21
141.731839254222308
 31
0.0
  0
LINE
  5
27ADD
  8
_0-7_作図レイヤ
  6
CONTINUOUS
 62
     5
 10
220.015535775104496
 20
141.731839254222308
 30
0.0
 11
220.015535775104496
 21
152.3985059208889083
 31
0.0
  0
LINE
  5
27ADE
  8
_0-7_作図レイヤ
  6
CONTINUOUS
 62
     5
 10
218.9155357751045869
 20
152.3985059208889936
 30
0.0
 11
220.015535775104496
 21
152.3985059208889083
 31
0.0
  0
LINE
  5
27ADF
  8
_0-7_作図レイヤ
  6
CONTINUOUS
 62
     5
 10
218.515535775104496
 20
151.9985059208889879
 30
0.0
 11
219.515535775104496
 21
151.9985059208889879
 31
0.0
  0
LINE
  5
27AE0
  8
_0-7_作図レイヤ
  6
CONTINUOUS
 62
     5
 10
219.5155357751044107
 20
141.731839254222308
 30
0.0
 11
219.515535775104496
 21
151.9985059208889879
 31
0.0
  0
LINE
  5
27AE1
  8
_0-7_作図レイヤ
  6
CONTINUOUS
 62
     5
 10
219.182202441771409
 20
159.8985059208889936
 30
0.0
 11
218.982202441771193
 21
159.8985059208889936
 31
0.0
  0
LINE
  5
27AE2
  8
_0-7_作図レイヤ
  6
CONTINUOUS
 62
     5
 10
219.182202441771409
 20
158.065172587555594
 30
0.0
 11
218.982202441771193
 21
158.065172587555594
 31
0.0
  0
LINE
  5
27AE3
  8
_0-7_作図レイヤ
  6
CONTINUOUS
 62
     5
 10
219.182202441771409
 20
156.231839254222308
 30
0.0
 11
218.982202441771193
 21
156.231839254222308
 31
0.0
  0
LINE
  5
27AE4
  8
_0-7_作図レイヤ
  6
CONTINUOUS
 62
     5
 10
219.182202441771409
 20
154.3985059208889936
 30
0.0
 11
218.9155357751045869
 21
154.3985059208889936
 31
0.0
  0
ARC
  5
27AE5
  8
_0-7_作図レイヤ
  6
CONTINUOUS
 62
     5
 10
218.982202441771193
 20
156.1651725875555883
 30
0.0
 40
0.0666666666666667
 50
90.0
 51
197.7329618145627137
  0
ARC
  5
27AE6
  8
_0-7_作図レイヤ
  6
CONTINUOUS
 62
     5
 10
218.982202441771193
 20
157.9985059208889879
 30
0.0
 40
0.0666666666666667
 50
90.0
 51
197.7329618145627137
  0
ARC
  5
27AE7
  8
_0-7_作図レイヤ
  6
CONTINUOUS
 62
     5
 10
218.982202441771193
 20
159.8318392542223023
 30
0.0
 40
0.0666666666666667
 50
90.0
 51
197.7329618145627137
  0
ARC
  5
27AE8
  8
_0-7_作図レイヤ
  6
CONTINUOUS
 62
     5
 10
219.182202441771409
 20
154.565172587555594
 30
0.0
 40
0.1666666666666666
 50
270.0
 51
17.7329618145628203
  0
ARC
  5
27AE9
  8
_0-7_作図レイヤ
  6
CONTINUOUS
 62
     5
 10
219.182202441771409
 20
156.3985059208889936
 30
0.0
 40
0.1666666666666666
 50
270.0
 51
17.7329618145628203
  0
ARC
  5
27AEA
  8
_0-7_作図レイヤ
  6
CONTINUOUS
 62
     5
 10
219.182202441771409
 20
158.231839254222308
 30
0.0
 40
0.1666666666666666
 50
270.0
 51
17.7329618145628203
  0
ARC
  5
27AEB
  8
_0-7_作図レイヤ
  6
CONTINUOUS
 62
     5
 10
219.182202441771409
 20
160.065172587555594
 30
0.0
 40
0.1666666666666666
 50
270.0
 51
16.9372887831293788
  0
LINE
  5
27AEC
  8
_0-7_作図レイヤ
  6
CONTINUOUS
 62
     5
 10
218.9515050859131122
 20
161.6137267271872986
 30
0.0
 11
219.3416398065965041
 21
160.1137267271874123
 31
0.0
  0
LINE
  5
27AED
  8
_0-7_作図レイヤ
  6
CONTINUOUS
 62
     5
 10
218.9187033473866109
 20
159.811533849602597
 30
0.0
 11
219.3409501777329922
 21
158.282602765771486
 31
0.0
  0
LINE
  5
27AEE
  8
_0-7_作図レイヤ
  6
CONTINUOUS
 62
     5
 10
219.3409501777329922
 20
156.4492694324380864
 30
0.0
 11
218.9187033473866109
 21
157.978200516269311
 31
0.0
  0
LINE
  5
27AEF
  8
_0-7_作図レイヤ
  6
CONTINUOUS
 62
     5
 10
218.9187033473864972
 20
156.1448671829359967
 30
0.0
 11
219.3409501777329922
 21
154.6159360991048004
 31
0.0
  0
ARC
  5
27AF0
  8
_0-7_作図レイヤ
  6
CONTINUOUS
 62
     5
 10
218.6155357751044903
 20
161.6318392542223989
 30
0.0
 40
0.1
 50
89.9999999999869686
 51
180.0
  0
ARC
  5
27AF1
  8
_0-7_作図レイヤ
  6
CONTINUOUS
 62
     5
 10
218.7920677210879887
 20
161.565172587555594
 30
0.0
 40
0.1666666666666666
 50
16.9372887831322103
 51
89.9999999999869686
  0
LINE
  5
27AF2
  8
_0-7_作図レイヤ
  6
CONTINUOUS
 62
     5
 10
218.9155357751045869
 20
154.3985059208889936
 30
0.0
 11
218.9155357751045869
 21
152.3985059208889083
 31
0.0
  0
LINE
  5
27AF3
  8
_0-6_寸法レイヤ
 62
     3
 10
219.5036145843515101
 20
152.565172587555594
 30
0.0
 11
219.6801465303350938
 21
152.565172587555594
 31
0.0
  0
LINE
  5
27AF4
  8
_0-6_寸法レイヤ
 62
     3
 10
219.7801465303350028
 20
152.665172587555702
 30
0.0
 11
219.7801465303350028
 21
162.2985059208889993
 31
0.0
  0
LINE
  5
27AF5
  8
_0-6_寸法レイヤ
  6
DIVIDE
 62
     3
 10
218.7801465303350028
 20
172.565172587555594
 30
0.0
 11
218.2801465303348891
 21
172.565172587555594
 31
0.0
  0
LINE
  5
27AF6
  8
_0-6_寸法レイヤ
 62
     3
 10
219.3801465303349971
 20
161.8985059208889936
 30
0.0
 11
218.2801465303348891
 21
161.8985059208889936
 31
0.0
  0
LINE
  5
27AF7
  8
_0-6_寸法レイヤ
 62
     3
 10
219.7801465303350028
 20
162.2985059208889993
 30
0.0
 11
218.7801465303350028
 21
162.2985059208889993
 31
0.0
  0
LINE
  5
27AF8
  8
_0-6_寸法レイヤ
 62
     3
 10
218.7801465303350028
 20
172.565172587555594
 30
0.0
 11
218.7801465303348891
 21
162.2985059208889993
 31
0.0
  0
LINE
  5
27AF9
  8
_0-6_寸法レイヤ
 62
     3
 10
219.1134798636684025
 20
154.3985059208889936
 30
0.0
 11
219.3134798636683058
 21
154.3985059208889936
 31
0.0
  0
LINE
  5
27AFA
  8
_0-6_寸法レイヤ
 62
     3
 10
219.1134798636684025
 20
156.231839254222308
 30
0.0
 11
219.3134798636683058
 21
156.231839254222308
 31
0.0
  0
LINE
  5
27AFB
  8
_0-6_寸法レイヤ
 62
     3
 10
219.1134798636684025
 20
158.065172587555594
 30
0.0
 11
219.3134798636683058
 21
158.065172587555594
 31
0.0
  0
LINE
  5
27AFC
  8
_0-6_寸法レイヤ
 62
     3
 10
219.1134798636684025
 20
159.8985059208889936
 30
0.0
 11
219.3801465303349971
 21
159.8985059208889936
 31
0.0
  0
ARC
  5
27AFD
  8
_0-6_寸法レイヤ
 62
     3
 10
219.3134798636683058
 20
158.1318392542223989
 30
0.0
 40
0.0666666666666667
 50
270.0
 51
17.7329618145628203
  0
ARC
  5
27AFE
  8
_0-6_寸法レイヤ
 62
     3
 10
219.3134798636683058
 20
156.2985059208889993
 30
0.0
 40
0.0666666666666667
 50
270.0
 51
17.7329618145628203
  0
ARC
  5
27AFF
  8
_0-6_寸法レイヤ
 62
     3
 10
219.3134798636683058
 20
154.4651725875555996
 30
0.0
 40
0.0666666666666667
 50
270.0
 51
17.7329618145628203
  0
ARC
  5
27B00
  8
_0-6_寸法レイヤ
 62
     3
 10
219.1134798636684025
 20
159.731839254222308
 30
0.0
 40
0.1666666666666666
 50
90.0
 51
197.7329618145627137
  0
ARC
  5
27B01
  8
_0-6_寸法レイヤ
 62
     3
 10
219.1134798636684025
 20
157.8985059208889936
 30
0.0
 40
0.1666666666666666
 50
90.0
 51
197.7329618145627137
  0
ARC
  5
27B02
  8
_0-6_寸法レイヤ
 62
     3
 10
219.1134798636684025
 20
156.065172587555594
 30
0.0
 40
0.1666666666666666
 50
90.0
 51
197.7329618145627137
  0
ARC
  5
27B03
  8
_0-6_寸法レイヤ
 62
     3
 10
219.1134798636684025
 20
154.231839254222308
 30
0.0
 40
0.1666666666666666
 50
90.0
 51
196.9372887831293895
  0
LINE
  5
27B04
  8
_0-6_寸法レイヤ
 62
     3
 10
219.3441772195263013
 20
152.6832851145906034
 30
0.0
 11
218.9540424988431937
 21
154.1832851145906034
 31
0.0
  0
LINE
  5
27B05
  8
_0-6_寸法レイヤ
 62
     3
 10
219.3769789580532006
 20
154.485477992175305
 30
0.0
 11
218.9547321277067056
 21
156.0144090760065012
 31
0.0
  0
LINE
  5
27B06
  8
_0-6_寸法レイヤ
 62
     3
 10
218.9547321277067056
 20
157.8477424093397872
 30
0.0
 11
219.3769789580532006
 21
156.3188113255085909
 31
0.0
  0
LINE
  5
27B07
  8
_0-6_寸法レイヤ
  6
DIVIDE
 62
     3
 10
219.3769789580532006
 20
158.1521446588419906
 30
0.0
 11
218.9547321277067056
 21
159.6810757426731016
 31
0.0
  0
ARC
  5
27B08
  8
_0-6_寸法レイヤ
 62
     3
 10
219.6801465303350938
 20
152.665172587555702
 30
0.0
 40
0.1
 50
269.9999999999869829
 51
0.0
  0
ARC
  5
27B09
  8
_0-6_寸法レイヤ
 62
     3
 10
219.5036145843515101
 20
152.731839254222308
 30
0.0
 40
0.1666666666666666
 50
196.9372887831322032
 51
269.9999999999869829
  0
LINE
  5
27B0A
  8
_0-6_寸法レイヤ
 62
     3
 10
219.3801465303349971
 20
159.8985059208889936
 30
0.0
 11
219.3801465303349971
 21
161.8985059208889936
 31
0.0
  0
LINE
  5
27B0B
  8
_0-6_寸法レイヤ
 62
     3
 10
218.2801465303348891
 20
172.565172587555594
 30
0.0
 11
218.2801465303348891
 21
161.8985059208889936
 31
0.0
  0
LINE
  5
27B0C
  8
MC2
  6
CONTINUOUS
 62
     3
 10
220.0155357751044107
 20
148.0651725875557077
 30
0.0
 11
220.015540613015304
 21
148.0651435600906893
 31
0.0
  0
LINE
  5
27B0D
  8
PL11
 10
219.515535775104496
 20
146.8651725875556906
 30
0.0
 11
220.015535775104496
 21
146.8651725875556906
 31
0.0
  0
LINE
  5
27B0E
  8
PL1
 10
218.2801465303348891
 20
167.231839254222308
 30
0.0
 11
218.7801465303348891
 21
167.231839254222308
 31
0.0
  0
LINE
  5
27B0F
  8
PL1
 10
218.2801465303348891
 20
172.565172587555594
 30
0.0
 11
218.2801465303348891
 21
190.198505920889005
 31
0.0
  0
LINE
  5
27B10
  8
_0-7_作図レイヤ
  6
CONTINUOUS
 62
     5
 10
219.515535775104496
 20
71.7318392542224217
 30
0.0
 11
220.015535775104496
 21
71.7318392542224217
 31
0.0
  0
LINE
  5
27B11
  8
_0-7_作図レイヤ
  6
CONTINUOUS
 62
     5
 10
220.015535775104496
 20
71.7318392542224217
 30
0.0
 11
220.015535775104496
 21
82.3985059208890362
 31
0.0
  0
LINE
  5
27B12
  8
0
  6
CONTINUOUS
 62
     7
 10
218.8468131970014952
 20
82.3985059208890362
 30
0.0
 11
220.015535775104496
 21
82.3985059208890362
 31
0.0
  0
LINE
  5
27B13
  8
_0-7_作図レイヤ
  6
CONTINUOUS
 62
     5
 10
219.5155357751044107
 20
71.7318392542224217
 30
0.0
 11
219.515535775104496
 21
81.9985059208890732
 31
0.0
  0
LINE
  5
27B14
  8
0
 62
     7
 10
219.7801367945783966
 20
82.3985059208890362
 30
0.0
 11
219.7801367945785955
 21
91.7318392461040446
 31
0.0
  0
LINE
  5
27B15
  8
0
  6
DIVIDE
 62
     7
 10
219.7801367945785955
 20
91.7318392461040446
 30
0.0
 11
219.3801367945785898
 21
91.7318392461040446
 31
0.0
  0
LINE
  5
27B16
  8
0
  6
DIVIDE
 62
     7
 10
219.7801367945783966
 20
82.3985059112597042
 30
0.0
 11
218.5155260393470087
 21
82.3985059193779819
 31
0.0
  0
LINE
  5
27B17
  8
0
 62
     7
 10
219.3801367945783056
 20
82.3985059208890362
 30
0.0
 11
219.3801367945785898
 21
91.731839246104002
 31
0.0
  0
LINE
  5
27B18
  8
_0-7_作図レイヤ
  6
CONTINUOUS
 62
     5
 10
218.7920579853303877
 20
91.7318392445930044
 30
0.0
 11
218.615526039347003
 21
91.7318392445930044
 31
0.0
  0
LINE
  5
27B19
  8
_0-7_作図レイヤ
  6
CONTINUOUS
 62
     5
 10
218.5155260393470087
 20
91.6318392445929533
 30
0.0
 11
218.5155260393470087
 21
81.9985059112596844
 31
0.0
  0
LINE
  5
27B1A
  8
_0-7_作図レイヤ
  6
CONTINUOUS
 62
     5
 10
220.0155260393470087
 20
71.7318392445930328
 30
0.0
 11
220.0155260393470087
 21
82.3985059112597042
 31
0.0
  0
LINE
  5
27B1B
  8
0
  6
CONTINUOUS
 62
     7
 10
218.9155260393469007
 20
82.3985059112597042
 30
0.0
 11
220.0155260393470087
 21
82.3985059112597042
 31
0.0
  0
LINE
  5
27B1C
  8
_0-7_作図レイヤ
  6
CONTINUOUS
 62
     5
 10
218.5155260393470087
 20
81.9985059112596844
 30
0.0
 11
219.5155260393470087
 21
81.9985059112596275
 31
0.0
  0
LINE
  5
27B1D
  8
_0-7_作図レイヤ
  6
CONTINUOUS
 62
     5
 10
219.182192706013609
 20
89.8985059112597753
 30
0.0
 11
218.9821927060137057
 21
89.8985059112597753
 31
0.0
  0
LINE
  5
27B1E
  8
_0-7_作図レイヤ
  6
CONTINUOUS
 62
     5
 10
219.182192706013609
 20
88.065172577926333
 30
0.0
 11
218.9821927060137057
 21
88.065172577926333
 31
0.0
  0
LINE
  5
27B1F
  8
_0-7_作図レイヤ
  6
CONTINUOUS
 62
     5
 10
219.182192706013609
 20
86.2318392445930186
 30
0.0
 11
218.9821927060137057
 21
86.2318392445930186
 31
0.0
  0
LINE
  5
27B20
  8
_0-7_作図レイヤ
  6
CONTINUOUS
 62
     5
 10
219.182192706013609
 20
84.3985059112597753
 30
0.0
 11
218.9155260393469007
 21
84.3985059112596474
 31
0.0
  0
ARC
  5
27B21
  8
_0-7_作図レイヤ
  6
CONTINUOUS
 62
     5
 10
218.9821927060137057
 20
86.1651725779263558
 30
0.0
 40
0.0666666666666667
 50
90.0
 51
197.7329618145627137
  0
ARC
  5
27B22
  8
_0-7_作図レイヤ
  6
CONTINUOUS
 62
     5
 10
218.9821927060137057
 20
87.9985059112596844
 30
0.0
 40
0.0666666666666667
 50
90.0
 51
197.7329618145627137
  0
ARC
  5
27B23
  8
_0-7_作図レイヤ
  6
CONTINUOUS
 62
     5
 10
218.9821927060137057
 20
89.8318392445929987
 30
0.0
 40
0.0666666666666667
 50
90.0
 51
197.7329618145627137
  0
ARC
  5
27B24
  8
_0-7_作図レイヤ
  6
CONTINUOUS
 62
     5
 10
219.182192706013609
 20
84.5651725779264041
 30
0.0
 40
0.1666666666666666
 50
270.0
 51
17.7329618145628203
  0
ARC
  5
27B25
  8
_0-7_作図レイヤ
  6
CONTINUOUS
 62
     5
 10
219.182192706013609
 20
86.3985059112597753
 30
0.0
 40
0.1666666666666666
 50
270.0
 51
17.7329618145628203
  0
ARC
  5
27B26
  8
_0-7_作図レイヤ
  6
CONTINUOUS
 62
     5
 10
219.182192706013609
 20
88.2318392445930328
 30
0.0
 40
0.1666666666666666
 50
270.0
 51
17.7329618145628203
  0
ARC
  5
27B27
  8
_0-7_作図レイヤ
  6
CONTINUOUS
 62
     5
 10
219.182192706013609
 20
90.0651725779263472
 30
0.0
 40
0.1666666666666666
 50
270.0
 51
16.9372887831293788
  0
LINE
  5
27B28
  8
_0-7_作図レイヤ
  6
CONTINUOUS
 62
     5
 10
218.9514953501557102
 20
91.6137267175580661
 30
0.0
 11
219.3416300708387894
 21
90.1137267175581229
 31
0.0
  0
LINE
  5
27B29
  8
_0-7_作図レイヤ
  6
CONTINUOUS
 62
     5
 10
218.9186936116290099
 20
89.8115338399734071
 30
0.0
 11
219.3409404419753912
 21
88.2826027561422535
 31
0.0
  0
LINE
  5
27B2A
  8
_0-7_作図レイヤ
  6
CONTINUOUS
 62
     5
 10
219.3409404419753912
 20
86.4492694228088396
 30
0.0
 11
218.9186936116290099
 21
87.978200506639979
 31
0.0
  0
LINE
  5
27B2B
  8
_0-7_作図レイヤ
  6
CONTINUOUS
 62
     5
 10
218.9186936116290099
 20
86.1448671733066647
 30
0.0
 11
219.3409404419753912
 21
84.6159360894755253
 31
0.0
  0
ARC
  5
27B2C
  8
_0-7_作図レイヤ
  6
CONTINUOUS
 62
     5
 10
218.615526039347003
 20
91.6318392445929533
 30
0.0
 40
0.1
 50
89.9999999999869686
 51
180.0
  0
ARC
  5
27B2D
  8
_0-7_作図レイヤ
  6
CONTINUOUS
 62
     5
 10
218.7920579853303877
 20
91.5651725779263614
 30
0.0
 40
0.1666666666666666
 50
16.9372887831322103
 51
89.9999999999869686
  0
LINE
  5
27B2E
  8
_0-7_作図レイヤ
  6
CONTINUOUS
 62
     5
 10
218.9155260393469007
 20
84.3985059112596474
 30
0.0
 11
218.9155260393469007
 21
82.3985059112597042
 31
0.0
  0
LINE
  5
27B2F
  8
MC2
  6
CONTINUOUS
 62
     3
 10
220.0155260393470087
 20
77.5651723881803434
 30
0.0
 11
220.0155308772579019
 21
77.565143360715382
 31
0.0
  0
LINE
  5
27B30
  8
PL11
 10
218.5155260393472076
 20
91.7318392445930044
 30
0.0
 11
218.5155260393470087
 21
82.3985059193779819
 31
0.0
  0
LINE
  5
27B31
  8
PL11
 10
219.5155357751044107
 20
76.8651725875557474
 30
0.0
 11
220.015535775104496
 21
76.8651725875557474
 31
0.0
  0
LINE
  5
27B32
  8
0
 62
     7
 10
218.5155260393472076
 20
91.7318392445930044
 30
0.0
 11
219.3801367945785898
 21
91.7318392445930044
 31
0.0
  0
LINE
  5
27B33
  8
0
 62
     7
 10
218.5155260393472076
 20
91.7318392445930044
 30
0.0
 11
218.2801465303348891
 21
91.7318392445930044
 31
0.0
  0
LINE
  5
27B34
  8
0
 62
     7
 10
218.5155260393470087
 20
82.3985059193779819
 30
0.0
 11
218.2801465303348891
 21
82.3985059193779819
 31
0.0
  0
LINE
  5
27B35
  8
PL1
 10
218.2801465303348891
 20
82.3985059193779819
 30
0.0
 11
218.2801465303348891
 21
56.8651725875557474
 31
0.0
  0
LINE
  5
27B36
  8
本体２
 10
220.015535775104496
 20
71.7318392542224217
 30
0.0
 11
220.015535775104496
 21
132.3626101207152885
 31
0.0
  0
LINE
  5
27B37
  8
本体２
 10
220.015535775104496
 20
172.565172587555594
 30
0.0
 11
220.6821742909461079
 21
172.565172587555594
 31
0.0
  0
LINE
  5
27B38
  8
本体２
 10
220.6821742909461932
 20
172.565172587555594
 30
0.0
 11
220.6822156046939938
 21
134.6548918692002133
 31
0.0
  0
LINE
  5
27B39
  8
本体２
 10
220.015535775104496
 20
71.7318392542224217
 30
0.0
 11
220.6822841767817067
 21
71.7318399808294203
 31
0.0
  0
LINE
  5
27B3A
  8
ビス
  6
CONTINUOUS
 62
     5
 10
227.3796548550770922
 20
76.9020225890085669
 30
0.0
 11
226.3067927098786072
 21
77.2066724492900676
 31
0.0
  0
LINE
  5
27B3B
  8
ビス
  6
CONTINUOUS
 62
     5
 10
227.3681008899420988
 20
76.8283190861029937
 30
0.0
 11
226.3191648517779129
 21
77.1261748906918285
 31
0.0
  0
LINE
  5
27B3C
  8
ビス
  6
CONTINUOUS
 62
     5
 10
224.676213860673613
 20
77.6151588375557537
 30
0.0
 11
228.370349679988891
 21
77.6151588375557537
 31
0.0
  0
LINE
  5
27B3D
  8
ビス
  6
CONTINUOUS
 62
     5
 10
224.676213860673613
 20
76.1151828375558068
 30
0.0
 11
228.370349679988891
 21
76.1151828375558068
 31
0.0
  0
LINE
  5
27B3E
  8
ビス
  6
CONTINUOUS
 62
     5
 10
228.9809207002697065
 20
77.0125778433669268
 30
0.0
 11
228.9809207002697065
 21
76.7177638317446338
 31
0.0
  0
LINE
  5
27B3F
  8
ビス
  6
CONTINUOUS
 62
     5
 10
228.9809207002697065
 20
77.0125778433669268
 30
0.0
 11
228.370349679988891
 21
77.6151588375557537
 31
0.0
  0
LINE
  5
27B40
  8
ビス
  6
CONTINUOUS
 62
     5
 10
228.9809207002697065
 20
76.9020225890085669
 30
0.0
 11
227.3796548550770922
 21
76.9020225890085669
 31
0.0
  0
LINE
  5
27B41
  8
ビス
  6
CONTINUOUS
 62
     5
 10
228.9809207002697065
 20
76.8283190861029937
 30
0.0
 11
227.3681008899420988
 21
76.8283190861029937
 31
0.0
  0
LINE
  5
27B42
  8
ビス
  6
CONTINUOUS
 62
     5
 10
228.9809207002697065
 20
76.7177638317446338
 30
0.0
 11
228.370349679988891
 21
76.1151828375558068
 31
0.0
  0
LINE
  5
27B43
  8
ビス
  6
CONTINUOUS
 62
     5
 10
223.8083015202722095
 20
76.8388781930180045
 30
0.0
 11
222.6651145127922007
 21
76.8388781930180045
 31
0.0
  0
LINE
  5
27B44
  8
ビス
  6
CONTINUOUS
 62
     5
 10
223.8276204172512962
 20
76.7651746901124454
 30
0.0
 11
222.6651145127922007
 21
76.7651746901124454
 31
0.0
  0
LINE
  5
27B45
  8
ビス
  6
CONTINUOUS
 62
     5
 10
222.859405752144994
 20
77.6151588375557537
 30
0.0
 11
220.6822785825945061
 21
77.6151588375557537
 31
0.0
  0
LINE
  5
27B46
  8
ビス
  6
CONTINUOUS
 62
     5
 10
222.859405752144994
 20
76.1151863375557838
 30
0.0
 11
220.6822785825945061
 21
76.1151863375557838
 31
0.0
  0
LINE
  5
27B47
  8
ビス
  6
CONTINUOUS
 62
     5
 10
224.676213860673613
 20
77.6151588375557537
 30
0.0
 11
222.859405752144994
 21
78.2332997291126446
 31
0.0
  0
LINE
  5
27B48
  8
ビス
  6
CONTINUOUS
 62
     5
 10
224.7461359641337992
 20
77.4680145992564064
 30
0.0
 11
222.859405752144994
 21
78.109945406308114
 31
0.0
  0
LINE
  5
27B49
  8
ビス
  6
CONTINUOUS
 62
     5
 10
224.7461359641337992
 20
77.4680145992564064
 30
0.0
 11
222.859405752144994
 21
77.4680145992562927
 31
0.0
  0
LINE
  5
27B4A
  8
ビス
  6
CONTINUOUS
 62
     5
 10
222.859405752144994
 20
78.2332997291126446
 30
0.0
 11
222.859405752144994
 21
78.109945406308114
 31
0.0
  0
LINE
  5
27B4B
  8
ビス
  6
CONTINUOUS
 62
     5
 10
224.7461359641337992
 20
76.2623305758550742
 30
0.0
 11
222.859405752144994
 21
76.262330575855259
 31
0.0
  0
LINE
  5
27B4C
  8
ビス
  6
CONTINUOUS
 62
     5
 10
224.7461359641337992
 20
76.2623305758550742
 30
0.0
 11
222.859405752144994
 21
75.6203997688033667
 31
0.0
  0
LINE
  5
27B4D
  8
ビス
  6
CONTINUOUS
 62
     5
 10
224.676213860673613
 20
76.1151863375557838
 30
0.0
 11
222.859405752144994
 21
75.4970454459988503
 31
0.0
  0
LINE
  5
27B4E
  8
ビス
  6
CONTINUOUS
 62
     5
 10
222.859405752144994
 20
75.4970454459988503
 30
0.0
 11
222.859405752144994
 21
75.6203997688033667
 31
0.0
  0
LINE
  5
27B4F
  8
ビス
  6
CONTINUOUS
 62
     5
 10
222.859405752144994
 20
77.4680145992562927
 30
0.0
 11
222.859405752144994
 21
77.6151588375557537
 31
0.0
  0
LINE
  5
27B50
  8
ビス
  6
CONTINUOUS
 62
     5
 10
222.859405752144994
 20
76.262330575855259
 30
0.0
 11
222.859405752144994
 21
76.1151863375557838
 31
0.0
  0
LINE
  5
27B51
  8
ビス
  6
CONTINUOUS
 62
     5
 10
224.2748008089347138
 20
77.0899478346916283
 30
0.0
 11
223.8083015202722095
 21
76.8388781930180045
 31
0.0
  0
LINE
  5
27B52
  8
ビス
  6
CONTINUOUS
 62
     5
 10
224.2791538109970872
 20
77.0081896959797803
 30
0.0
 11
223.8276204172512962
 21
76.7651746901124454
 31
0.0
  0
LINE
  5
27B53
  8
ビス
  6
CONTINUOUS
 62
     5
 10
226.3067927098786072
 20
77.2066724492900676
 30
0.0
 11
225.4192558987701034
 21
76.623050372721849
 31
0.0
  0
LINE
  5
27B54
  8
ビス
  6
CONTINUOUS
 62
     5
 10
226.3191648517779129
 20
77.1261748906918285
 30
0.0
 11
225.4273746971095989
 21
76.5397559214542014
 31
0.0
  0
LINE
  5
27B55
  8
ビス
  6
CONTINUOUS
 62
     5
 10
225.4192558987701034
 20
76.623050372721849
 30
0.0
 11
224.2748008089347138
 21
77.0899478346916283
 31
0.0
  0
LINE
  5
27B56
  8
ビス
  6
CONTINUOUS
 62
     5
 10
225.4192558987701034
 20
76.623050372721849
 30
0.0
 11
224.2748008089347138
 21
77.0899478346916283
 31
0.0
  0
LINE
  5
27B57
  8
ビス
  6
CONTINUOUS
 62
     5
 10
225.4273746971095989
 20
76.5397559214542014
 30
0.0
 11
224.2791538109970872
 21
77.0081896959797803
 31
0.0
  0
LINE
  5
27B58
  8
ビス
  6
CONTINUOUS
 62
     5
 10
222.238427993350399
 20
76.1151863375557838
 30
0.0
 11
221.1822785825945061
 21
75.8722926288978954
 31
0.0
  0
LINE
  5
27B59
  8
ビス
  6
CONTINUOUS
 62
     5
 10
222.238427993350399
 20
77.6151588375557537
 30
0.0
 11
221.1822785825945061
 21
77.8580525462136563
 31
0.0
  0
LINE
  5
27B5A
  8
ビス
  6
CONTINUOUS
 62
     5
 10
222.6651145127922007
 20
76.8388781930180045
 30
0.0
 11
222.6651145127922007
 21
76.7651746901124454
 31
0.0
  0
LINE
  5
27B5B
  8
ビス
 62
     5
 10
220.6822785825945061
 20
76.1151863375557838
 30
0.0
 11
220.6822785825945061
 21
77.6151588375556969
 31
0.0
  0
LINE
  5
27B5C
  8
ビス
 62
     5
 10
220.6822785825945061
 20
76.8651725875557474
 30
0.0
 11
221.3785669366806133
 21
76.8651725875557474
 31
0.0
  0
LINE
  5
27B5D
  8
ビス
 10
220.6822785825945061
 20
76.8651725875557474
 30
0.0
 11
222.7142759167342092
 21
76.8651725875557474
 31
0.0
  0
LINE
  5
27B5E
  8
PL6
 10
219.5155357751042118
 20
76.8651823375569165
 30
0.0
 11
220.015535775104496
 21
76.865182337555666
 31
0.0
  0
LINE
  5
27B5F
  8
ビス
  6
CONTINUOUS
 62
     5
 10
219.0155157751044896
 20
77.1151625875557727
 30
0.0
 11
219.0155157751044896
 21
76.6151875875557238
 31
0.0
  0
LINE
  5
27B60
  8
ビス
  6
CONTINUOUS
 62
     5
 10
219.1155407751043924
 20
75.3651625875557727
 30
0.0
 11
219.5155357751044107
 21
75.3651625875557727
 31
0.0
  0
ARC
  5
27B61
  8
ビス
  6
CONTINUOUS
 62
     5
 10
219.1155407751045914
 20
75.9651875875557749
 30
0.0
 40
0.5999999999999999
 50
180.0
 51
270.0
  0
ARC
  5
27B62
  8
ビス
  6
CONTINUOUS
 62
     5
 10
218.7655457751044992
 20
76.3651825875557222
 30
0.0
 40
0.24999995
 50
90.0
 51
180.0
  0
ARC
  5
27B63
  8
ビス
  6
CONTINUOUS
 62
     5
 10
218.7655457751044992
 20
77.3651825875557222
 30
0.0
 40
0.24999995
 50
180.0
 51
270.0
  0
LINE
  5
27B64
  8
ビス
  6
CONTINUOUS
 62
     5
 10
218.7655457751044139
 20
76.6151875875557238
 30
0.0
 11
219.0155157751044896
 21
76.6151875875557238
 31
0.0
  0
ARC
  5
27B65
  8
ビス
  6
CONTINUOUS
 62
     5
 10
219.1155407751045914
 20
77.7651750875557184
 30
0.0
 40
0.5999999999999999
 50
90.0
 51
180.0
  0
LINE
  5
27B66
  8
ビス
  6
CONTINUOUS
 62
     5
 10
218.7655457751044139
 20
77.1151625875557727
 30
0.0
 11
219.0155157751044896
 21
77.1151625875557727
 31
0.0
  0
LINE
  5
27B67
  8
ビス
  6
CONTINUOUS
 62
     5
 10
218.5155407751045118
 20
77.7651750875557184
 30
0.0
 11
218.5155407751045118
 21
75.9651875875557749
 31
0.0
  0
LINE
  5
27B68
  8
ビス
 10
219.5155357751044107
 20
78.3651825875557222
 30
0.0
 11
219.5155357751044107
 21
75.3651625875557727
 31
0.0
  0
LINE
  5
27B69
  8
ビス
  6
CONTINUOUS
 62
     5
 10
219.1155407751043924
 20
78.3651825875557222
 30
0.0
 11
219.5155357751044107
 21
78.3651825875557222
 31
0.0
  0
LINE
  5
27B6A
  8
本体２
 10
219.515535775104496
 20
146.8651725875556906
 30
0.0
 11
220.6822011041905114
 21
146.8651738047574042
 31
0.0
  0
LINE
  5
27B6B
  8
PL6
 10
219.8488689648773118
 20
146.8651835547599092
 30
0.0
 11
220.3488689648777097
 21
146.8651835547586018
 31
0.0
  0
LINE
  5
27B6C
  8
PL6
 10
220.1822022982105977
 20
146.8651738047599054
 30
0.0
 11
220.6822022982109104
 21
146.8651738047587116
 31
0.0
  0
LINE
  5
27B6D
  8
ビス
  6
CONTINUOUS
 62
     5
 10
227.3795785706934964
 20
146.9020238062115027
 30
0.0
 11
226.3067164254950114
 21
147.2066736664930033
 31
0.0
  0
LINE
  5
27B6E
  8
ビス
  6
CONTINUOUS
 62
     5
 10
227.3680246055585883
 20
146.828320303305901
 30
0.0
 11
226.3190885673942034
 21
147.1261761078947927
 31
0.0
  0
LINE
  5
27B6F
  8
ビス
  6
CONTINUOUS
 62
     5
 10
224.6761375762901025
 20
147.6151600547586895
 30
0.0
 11
228.370273395605409
 21
147.6151600547586895
 31
0.0
  0
LINE
  5
27B70
  8
ビス
  6
CONTINUOUS
 62
     5
 10
224.6761375762901025
 20
146.1151840547587994
 30
0.0
 11
228.370273395605409
 21
146.1151840547587994
 31
0.0
  0
LINE
  5
27B71
  8
ビス
  6
CONTINUOUS
 62
     5
 10
228.9808444158861107
 20
147.012579060569891
 30
0.0
 11
228.9808444158861107
 21
146.717765048947598
 31
0.0
  0
LINE
  5
27B72
  8
ビス
  6
CONTINUOUS
 62
     5
 10
228.9808444158861107
 20
147.012579060569891
 30
0.0
 11
228.370273395605409
 21
147.6151600547586895
 31
0.0
  0
LINE
  5
27B73
  8
ビス
  6
CONTINUOUS
 62
     5
 10
228.9808444158861107
 20
146.9020238062115027
 30
0.0
 11
227.3795785706934964
 21
146.9020238062115027
 31
0.0
  0
LINE
  5
27B74
  8
ビス
  6
CONTINUOUS
 62
     5
 10
228.9808444158861107
 20
146.828320303305901
 30
0.0
 11
227.3680246055585883
 21
146.828320303305901
 31
0.0
  0
LINE
  5
27B75
  8
ビス
  6
CONTINUOUS
 62
     5
 10
228.9808444158861107
 20
146.717765048947598
 30
0.0
 11
228.370273395605409
 21
146.1151840547587994
 31
0.0
  0
LINE
  5
27B76
  8
ビス
  6
CONTINUOUS
 62
     5
 10
223.808225235888699
 20
146.8388794102208976
 30
0.0
 11
222.6650382284086049
 21
146.8388794102208976
 31
0.0
  0
LINE
  5
27B77
  8
ビス
  6
CONTINUOUS
 62
     5
 10
223.8275441328677005
 20
146.7651759073154096
 30
0.0
 11
222.6650382284086049
 21
146.7651759073154096
 31
0.0
  0
LINE
  5
27B78
  8
ビス
  6
CONTINUOUS
 62
     5
 10
222.859329467761313
 20
147.6151600547586895
 30
0.0
 11
220.6822022982109104
 21
147.6151600547586895
 31
0.0
  0
LINE
  5
27B79
  8
ビス
  6
CONTINUOUS
 62
     5
 10
222.859329467761313
 20
146.1151875547587053
 30
0.0
 11
220.6822022982109104
 21
146.1151875547587053
 31
0.0
  0
LINE
  5
27B7A
  8
ビス
  6
CONTINUOUS
 62
     5
 10
224.6761375762901025
 20
147.6151600547586895
 30
0.0
 11
222.859329467761313
 21
148.2333009463156088
 31
0.0
  0
LINE
  5
27B7B
  8
ビス
  6
CONTINUOUS
 62
     5
 10
224.7460596797500898
 20
147.468015816459399
 30
0.0
 11
222.859329467761313
 21
148.1099466235110924
 31
0.0
  0
LINE
  5
27B7C
  8
ビス
  6
CONTINUOUS
 62
     5
 10
224.7460596797500898
 20
147.468015816459399
 30
0.0
 11
222.859329467761313
 21
147.4680158164592001
 31
0.0
  0
LINE
  5
27B7D
  8
ビス
  6
CONTINUOUS
 62
     5
 10
222.859329467761313
 20
148.2333009463156088
 30
0.0
 11
222.859329467761313
 21
148.1099466235110924
 31
0.0
  0
LINE
  5
27B7E
  8
ビス
  6
CONTINUOUS
 62
     5
 10
224.7460596797500898
 20
146.2623317930581095
 30
0.0
 11
222.859329467761313
 21
146.2623317930581948
 31
0.0
  0
LINE
  5
27B7F
  8
ビス
  6
CONTINUOUS
 62
     5
 10
224.7460596797500898
 20
146.2623317930581095
 30
0.0
 11
222.859329467761313
 21
145.6204009860063024
 31
0.0
  0
LINE
  5
27B80
  8
ビス
  6
CONTINUOUS
 62
     5
 10
224.6761375762901025
 20
146.1151875547587053
 30
0.0
 11
222.859329467761313
 21
145.497046663201786
 31
0.0
  0
LINE
  5
27B81
  8
ビス
  6
CONTINUOUS
 62
     5
 10
222.859329467761313
 20
145.497046663201786
 30
0.0
 11
222.859329467761313
 21
145.6204009860063024
 31
0.0
  0
LINE
  5
27B82
  8
ビス
  6
CONTINUOUS
 62
     5
 10
222.859329467761313
 20
147.4680158164592001
 30
0.0
 11
222.859329467761313
 21
147.6151600547586895
 31
0.0
  0
LINE
  5
27B83
  8
ビス
  6
CONTINUOUS
 62
     5
 10
222.859329467761313
 20
146.2623317930581948
 30
0.0
 11
222.859329467761313
 21
146.1151875547587053
 31
0.0
  0
LINE
  5
27B84
  8
ビス
  6
CONTINUOUS
 62
     5
 10
224.2747245245510896
 20
147.0899490518945925
 30
0.0
 11
223.808225235888699
 21
146.8388794102208976
 31
0.0
  0
LINE
  5
27B85
  8
ビス
  6
CONTINUOUS
 62
     5
 10
224.2790775266136052
 20
147.0081909131826876
 30
0.0
 11
223.8275441328677005
 21
146.7651759073154096
 31
0.0
  0
LINE
  5
27B86
  8
ビス
  6
CONTINUOUS
 62
     5
 10
226.3067164254950114
 20
147.2066736664930033
 30
0.0
 11
225.4191796143865076
 21
146.6230515899248132
 31
0.0
  0
LINE
  5
27B87
  8
ビス
  6
CONTINUOUS
 62
     5
 10
226.3190885673942034
 20
147.1261761078947927
 30
0.0
 11
225.4272984127258894
 21
146.539757138657194
 31
0.0
  0
LINE
  5
27B88
  8
ビス
  6
CONTINUOUS
 62
     5
 10
225.4191796143865076
 20
146.6230515899248132
 30
0.0
 11
224.2747245245510896
 21
147.0899490518945925
 31
0.0
  0
LINE
  5
27B89
  8
ビス
  6
CONTINUOUS
 62
     5
 10
225.4191796143865076
 20
146.6230515899248132
 30
0.0
 11
224.2747245245510896
 21
147.0899490518945925
 31
0.0
  0
LINE
  5
27B8A
  8
ビス
  6
CONTINUOUS
 62
     5
 10
225.4272984127258894
 20
146.539757138657194
 30
0.0
 11
224.2790775266136052
 21
147.0081909131826876
 31
0.0
  0
LINE
  5
27B8B
  8
ビス
  6
CONTINUOUS
 62
     5
 10
222.2383517089668032
 20
146.1151875547587053
 30
0.0
 11
221.1822022982109104
 21
145.8722938461008027
 31
0.0
  0
LINE
  5
27B8C
  8
ビス
  6
CONTINUOUS
 62
     5
 10
222.2383517089668032
 20
147.6151600547586895
 30
0.0
 11
221.1822022982109104
 21
147.8580537634165921
 31
0.0
  0
LINE
  5
27B8D
  8
ビス
  6
CONTINUOUS
 62
     5
 10
222.6650382284086049
 20
146.8388794102208976
 30
0.0
 11
222.6650382284086049
 21
146.7651759073154096
 31
0.0
  0
LINE
  5
27B8E
  8
ビス
 62
     5
 10
220.6822022982109104
 20
146.1151875547587053
 30
0.0
 11
220.6822022982109104
 21
147.6151600547586895
 31
0.0
  0
LINE
  5
27B8F
  8
ビス
 62
     5
 10
220.6822022982109104
 20
146.8651738047587116
 30
0.0
 11
221.3784906522969891
 21
146.8651738047587116
 31
0.0
  0
LINE
  5
27B90
  8
ビス
 10
220.6822022982109104
 20
146.8651738047587116
 30
0.0
 11
222.7141996323506987
 21
146.8651738047587116
 31
0.0
  0
LINE
  5
27B91
  8
PL6
 10
219.5155357751042118
 20
146.8651823375568881
 30
0.0
 11
220.015535775104496
 21
146.8651823375556091
 31
0.0
  0
LINE
  5
27B92
  8
ビス
  6
CONTINUOUS
 62
     5
 10
219.0155157751044896
 20
147.1151625875556874
 30
0.0
 11
219.0155157751044896
 21
146.6151875875557096
 31
0.0
  0
LINE
  5
27B93
  8
ビス
  6
CONTINUOUS
 62
     5
 10
219.1155407751043924
 20
145.3651625875556874
 30
0.0
 11
219.5155357751044107
 21
145.3651625875556874
 31
0.0
  0
ARC
  5
27B94
  8
ビス
  6
CONTINUOUS
 62
     5
 10
219.1155407751045914
 20
145.9651875875557892
 30
0.0
 40
0.5999999999999999
 50
180.0
 51
270.0
  0
ARC
  5
27B95
  8
ビス
  6
CONTINUOUS
 62
     5
 10
218.7655457751044992
 20
146.3651825875556938
 30
0.0
 40
0.24999995
 50
90.0
 51
180.0
  0
ARC
  5
27B96
  8
ビス
  6
CONTINUOUS
 62
     5
 10
218.7655457751044992
 20
147.3651825875556938
 30
0.0
 40
0.24999995
 50
180.0
 51
270.0
  0
LINE
  5
27B97
  8
ビス
  6
CONTINUOUS
 62
     5
 10
218.7655457751044139
 20
146.6151875875557096
 30
0.0
 11
219.0155157751044896
 21
146.6151875875557096
 31
0.0
  0
ARC
  5
27B98
  8
ビス
  6
CONTINUOUS
 62
     5
 10
219.1155407751045914
 20
147.76517508755569
 30
0.0
 40
0.5999999999999999
 50
90.0
 51
180.0
  0
LINE
  5
27B99
  8
ビス
  6
CONTINUOUS
 62
     5
 10
218.7655457751044139
 20
147.1151625875556874
 30
0.0
 11
219.0155157751044896
 21
147.1151625875556874
 31
0.0
  0
LINE
  5
27B9A
  8
ビス
  6
CONTINUOUS
 62
     5
 10
218.5155407751045118
 20
147.76517508755569
 30
0.0
 11
218.5155407751045118
 21
145.9651875875557892
 31
0.0
  0
LINE
  5
27B9B
  8
ビス
 10
219.5155357751044107
 20
148.3651825875556938
 30
0.0
 11
219.5155357751044107
 21
145.3651625875556874
 31
0.0
  0
LINE
  5
27B9C
  8
ビス
  6
CONTINUOUS
 62
     5
 10
219.1155407751043924
 20
148.3651825875556938
 30
0.0
 11
219.5155357751044107
 21
148.3651825875556938
 31
0.0
  0
LINE
  5
27B9D
  8
PL6
 10
218.7822024417627915
 20
146.8651725875546106
 30
0.0
 11
219.2822024417631042
 21
146.8651725875533032
 31
0.0
  0
LINE
  5
27B9E
  8
PL6
 10
218.7822024417627063
 20
146.865172587548102
 30
0.0
 11
219.2822024417629052
 21
146.8651725875467946
 31
0.0
  0
LINE
  5
27B9F
  8
PL1
 10
218.2801465303348891
 20
190.198505920889005
 30
0.0
 11
218.2801465303348891
 21
134.6548918692002133
 31
0.0
  0
LINE
  5
27CEC
  8
PL3
 10
213.4801465303349914
 20
109.8651725875557048
 30
0.0
 11
212.9468131970016032
 21
109.8651725875557048
 31
0.0
  0
LINE
  5
27CED
  8
PL3
 10
212.9468131970016032
 20
102.5318392542224046
 30
0.0
 11
213.4801465303349914
 21
102.5318392542224046
 31
0.0
  0
LINE
  5
27CEF
  8
PL1
 10
212.2801465303348891
 20
143.5318392542222909
 30
0.0
 11
214.1468131970015065
 21
143.5318392542222909
 31
0.0
  0
LINE
  5
27CF0
  8
PL1
 10
214.1468131970015065
 20
143.5318392542222909
 30
0.0
 11
214.1468131970015065
 21
137.6675973420047114
 31
0.0
  0
LINE
  5
27CF1
  8
PL1
 10
214.1468131970015065
 20
137.6675973420047114
 30
0.0
 11
214.1468131970015918
 21
135.5422509395619954
 31
0.0
  0
LINE
  5
27CF2
  8
PL1
 10
214.1468131970015065
 20
124.8651725875557048
 30
0.0
 11
212.2801465303348891
 21
124.8651725875557048
 31
0.0
  0
LINE
  5
27CF3
  8
PL1
 10
212.2801465303348891
 20
124.8651725875557048
 30
0.0
 11
212.2801465303348891
 21
118.198505920889005
 31
0.0
  0
LINE
  5
27CF4
  8
PL2
 10
214.1468131970015065
 20
143.5318392542222909
 30
0.0
 11
214.1468131970015065
 21
137.6675973420047114
 31
0.0
  0
LINE
  5
27CF5
  8
PL2
 10
214.1468131970015065
 20
137.6675973420047114
 30
0.0
 11
214.1468131970015918
 21
135.5422509395619954
 31
0.0
  0
LINE
  5
27CF6
  8
PL2
 10
214.1468131970015065
 20
124.8651725875557048
 30
0.0
 11
213.4801465303349914
 21
124.8651725875557048
 31
0.0
  0
LINE
  5
27CF7
  8
PL2
 10
213.4801465303349914
 20
124.8651725875557048
 30
0.0
 11
213.4801465303349914
 21
132.3626101207152885
 31
0.0
  0
LINE
  5
27CF8
  8
PL2
 10
213.4801465303349914
 20
137.0657017106082947
 30
0.0
 11
213.4801465303349914
 21
143.5318392542222909
 31
0.0
  0
LINE
  5
27CF9
  8
PL2
 10
213.4801465303349914
 20
143.5318392542222909
 30
0.0
 11
214.1468131970015918
 21
143.5318392542222909
 31
0.0
  0
LINE
  5
27CFA
  8
PL3
 10
212.2801465303348891
 20
143.5318392542222909
 30
0.0
 11
212.2801465303348891
 21
136.0953856357004099
 31
0.0
  0
LINE
  5
27CFB
  8
PL3
 10
212.2801465303348891
 20
137.0448783399289141
 30
0.0
 11
212.2801465303348891
 21
134.6548918692002133
 31
0.0
  0
LINE
  5
27CFC
  8
PL3
 10
212.2801465303348891
 20
124.8651725875557048
 30
0.0
 11
212.9468131970016032
 21
124.8651725875557048
 31
0.0
  0
LINE
  5
27CFD
  8
PL3
 10
212.9468131970016032
 20
124.8651725875557048
 30
0.0
 11
212.9468131970014895
 21
132.3626101207154022
 31
0.0
  0
LINE
  5
27CFE
  8
PL3
 10
212.9468131970016032
 20
136.5323683772749064
 30
0.0
 11
212.9468131970016032
 21
143.5318392542222909
 31
0.0
  0
LINE
  5
27CFF
  8
PL3
 10
212.9468131970016032
 20
143.5318392542222909
 30
0.0
 11
212.2801465303348891
 21
143.5318392542222909
 31
0.0
  0
LINE
  5
27D00
  8
PL3
 10
213.4801465303349914
 20
137.0657017106082947
 30
0.0
 11
213.4801465303349914
 21
140.5318392542224046
 31
0.0
  0
LINE
  5
27D01
  8
PL3
 10
212.9468131970016032
 20
142.5318392542224046
 30
0.0
 11
213.4801465303349914
 21
142.5318392542224046
 31
0.0
  0
LINE
  5
27D0B
  8
PL3
 10
213.4801465303349914
 20
143.5318392542222909
 30
0.0
 11
212.9468131970016032
 21
143.5318392542222909
 31
0.0
  0
LINE
  5
27D0C
  8
PL3
 10
213.4801465303349914
 20
140.5318392542222909
 30
0.0
 11
212.9468131970016032
 21
140.5318392542222909
 31
0.0
  0
LINE
  5
27D58
  8
DIM
 10
224.0723997038224127
 20
132.3626101207152885
 30
0.0
 11
218.728350318169106
 21
132.3626101207152885
 31
0.0
  0
LINE
  5
27D59
  8
DIM
 10
224.0723997038224127
 20
134.6548918692002133
 30
0.0
 11
217.7788561291662859
 21
134.6548918692002133
 31
0.0
  0
LINE
  5
27D5A
  8
DIM
 10
214.2089498004168036
 20
132.3626101207152885
 30
0.0
 11
208.7961152469017918
 21
132.3626101207152885
 31
0.0
  0
LINE
  5
27D5B
  8
DIM
 10
213.2594556114140119
 20
134.6548918692002133
 30
0.0
 11
208.7961152469017918
 21
134.6548918692002133
 31
0.0
  0
LINE
  5
27D5C
  8
DIM
 10
214.8640528353533909
 20
133.0177131556519896
 30
0.0
 11
217.1237530942298122
 21
130.7580128967759094
 31
0.0
  0
LINE
  5
27D5D
  8
DIM
 10
214.8640528353533909
 20
133.0177131556519896
 30
0.0
 11
214.2089498004168036
 21
132.3626101207152885
 31
0.0
  0
LINE
  5
27D5E
  8
DIM
 10
218.728350318169106
 20
132.3626101207152885
 30
0.0
 11
217.1237530942298122
 21
130.7580128967759094
 31
0.0
  0
LINE
  5
27D5F
  8
DIM
 10
214.8640513505791887
 20
136.2594890931395923
 30
0.0
 11
217.1237516094556099
 21
133.9997888342635122
 31
0.0
  0
LINE
  5
27D60
  8
DIM
 10
214.8640513505791887
 20
136.2594890931395923
 30
0.0
 11
213.2594541266398096
 21
134.6548918692002133
 31
0.0
  0
LINE
  5
27D61
  8
DIM
 10
214.8640513505791887
 20
133.0177131556519896
 30
0.0
 11
217.1237516094556099
 21
130.7580128967759947
 31
0.0
  0
LINE
  5
27D70
  8
DIM
 10
217.778854644392112
 20
134.6548918692002985
 30
0.0
 11
217.1237516094556099
 21
133.9997888342635122
 31
0.0
  0
LINE
  5
27D71
  8
本体２
 10
220.6822181027696104
 20
132.3626101207152885
 30
0.0
 11
220.682284176781792
 21
71.7318399808293918
 31
0.0
  0
LINE
  5
27D72
  8
本体２
 10
220.015535775104496
 20
134.6548918692002133
 30
0.0
 11
220.015535775104496
 21
172.565172587555594
 31
0.0
  0
LINE
  5
27D73
  8
PL1
 10
218.2801465303350028
 20
131.914406332881299
 30
0.0
 11
218.2801465303348891
 21
82.3985059193779819
 31
0.0
  0
LINE
  5
27D74
  8
PL2
 10
214.1468131970015918
 20
132.3626101207154022
 30
0.0
 11
214.1468131970015065
 21
124.8651725875557048
 31
0.0
  0
LINE
  5
27D75
  8
PL1
 10
214.1468131970015918
 20
132.3626101207154022
 30
0.0
 11
214.1468131970015065
 21
124.8651725875557048
 31
0.0
  0
LINE
  5
27D76
  8
PL2
 10
213.4801465303349062
 20
134.8755842728953951
 30
0.0
 11
213.4801465303349914
 21
137.0656987410598049
 31
0.0
  0
LINE
  5
27D77
  8
PL3
 10
212.9468131970014895
 20
134.6548918692002133
 30
0.0
 11
212.9468131970014895
 21
137.0448783399289141
 31
0.0
  0
LINE
  5
27D78
  8
PL3
 10
212.2801465303348891
 20
132.3626101207152885
 30
0.0
 11
212.2801465303348891
 21
124.8651725875557048
 31
0.0
  0
LINE
  5
27D79
  8
PL1
 10
212.2801465303348891
 20
132.3626101207152885
 30
0.0
 11
212.2801465303348891
 21
118.198505920889005
 31
0.0
  0
LINE
  5
27F19
  8
PL1
 10
75.5924657950995851
 20
145.5424333611267969
 30
0.0
 11
75.5924657950995851
 21
85.5424333611267969
 31
0.0
  0
LINE
  5
27F1A
  8
PL1
 10
75.5924657950995851
 20
85.5424333611267969
 30
0.0
 11
115.5924657950995993
 21
85.5424333611267969
 31
0.0
  0
LINE
  5
27F1B
  8
PL1
 10
115.5924657950995993
 20
85.5424333611267969
 30
0.0
 11
115.5924657950995993
 21
145.5424333611267969
 31
0.0
  0
LINE
  5
27F1C
  8
PL1
 10
115.5924657950995993
 20
145.5424333611267969
 30
0.0
 11
75.5924657950995851
 21
145.5424333611267969
 31
0.0
  0
LINE
  5
27F1D
  8
PL1
 10
115.5924657950995993
 20
131.5424333611267969
 30
0.0
 11
75.5924657950995851
 21
131.5424333611267969
 31
0.0
  0
LINE
  5
27F1E
  8
PL1
 10
115.5924657950995993
 20
124.342433361126794
 30
0.0
 11
75.5924657950995851
 21
124.342433361126794
 31
0.0
  0
LINE
  5
27F1F
  8
PL1
 10
115.5924657950995993
 20
122.342433361126794
 30
0.0
 11
75.5924657950995851
 21
122.342433361126794
 31
0.0
  0
LINE
  5
27F20
  8
PL1
 10
115.5924657950995993
 20
122.342433361126794
 30
0.0
 11
75.5924657950995851
 21
122.342433361126794
 31
0.0
  0
LINE
  5
27F21
  8
PL1
 10
115.5924657950995993
 20
115.1424333611268054
 30
0.0
 11
75.5924657950995851
 21
115.1424333611268054
 31
0.0
  0
LINE
  5
27F22
  8
PL1
 10
115.5924657950995993
 20
113.1424333611268054
 30
0.0
 11
75.5924657950995851
 21
113.1424333611268054
 31
0.0
  0
LINE
  5
27F23
  8
PL1
 10
115.5924657950995993
 20
113.1424333611268054
 30
0.0
 11
75.5924657950995851
 21
113.1424333611268054
 31
0.0
  0
LINE
  5
27F24
  8
PL1
 10
115.5924657950995993
 20
105.9424333611268025
 30
0.0
 11
75.5924657950995851
 21
105.9424333611268025
 31
0.0
  0
LINE
  5
27F25
  8
PL1
 10
115.5924657950995993
 20
103.9424333611268025
 30
0.0
 11
75.5924657950995851
 21
103.9424333611268025
 31
0.0
  0
LINE
  5
27F26
  8
PL1
 10
115.5924657950995993
 20
103.9424333611268025
 30
0.0
 11
75.5924657950995851
 21
103.9424333611268025
 31
0.0
  0
LINE
  5
27F27
  8
PL1
 10
115.5924657950995993
 20
96.7424333611268139
 30
0.0
 11
75.5924657950995851
 21
96.7424333611268139
 31
0.0
  0
LINE
  5
27F28
  8
PL1
 10
115.5924657950995993
 20
94.7424333611268139
 30
0.0
 11
75.5924657950995851
 21
94.7424333611268139
 31
0.0
  0
LINE
  5
27F29
  8
PL1
 10
115.5924657950995993
 20
94.7424333611268139
 30
0.0
 11
75.5924657950995851
 21
94.7424333611268139
 31
0.0
  0
LINE
  5
27F2A
  8
PL1
 10
115.5924657950995993
 20
87.5424333611267969
 30
0.0
 11
75.5924657950995851
 21
87.5424333611267969
 31
0.0
  0
LINE
  5
27F2B
  8
PL1
 10
115.5924657950995993
 20
85.5424333611267969
 30
0.0
 11
75.5924657950995851
 21
85.5424333611267969
 31
0.0
  0
LINE
  5
27F2C
  8
PL1
 10
75.5924657950995851
 20
131.5424333611267969
 30
0.0
 11
82.7924657950996448
 21
131.5424333611267969
 31
0.0
  0
LINE
  5
27F2D
  8
PL1
 10
82.7924657950996448
 20
131.5424333611267969
 30
0.0
 11
82.7924657950996448
 21
124.342433361126794
 31
0.0
  0
LINE
  5
27F2E
  8
PL1
 10
99.192465795099622
 20
131.5424333611267969
 30
0.0
 11
99.192465795099622
 21
124.342433361126794
 31
0.0
  0
LINE
  5
27F2F
  8
PL1
 10
82.7924657950996448
 20
122.342433361126794
 30
0.0
 11
82.7924657950996448
 21
115.1424333611268054
 31
0.0
  0
LINE
  5
27F30
  8
PL1
 10
99.192465795099622
 20
122.342433361126794
 30
0.0
 11
99.192465795099622
 21
115.1424333611268054
 31
0.0
  0
LINE
  5
27F31
  8
PL1
 10
82.7924657950996448
 20
113.1424333611268054
 30
0.0
 11
82.7924657950996448
 21
105.9424333611268025
 31
0.0
  0
LINE
  5
27F32
  8
PL1
 10
99.192465795099622
 20
113.1424333611268054
 30
0.0
 11
99.192465795099622
 21
105.9424333611268025
 31
0.0
  0
LINE
  5
27F33
  8
PL1
 10
82.7924657950996448
 20
103.9424333611268025
 30
0.0
 11
82.7924657950996448
 21
96.7424333611268139
 31
0.0
  0
LINE
  5
27F34
  8
PL1
 10
99.192465795099622
 20
103.9424333611268025
 30
0.0
 11
99.192465795099622
 21
96.7424333611268139
 31
0.0
  0
LINE
  5
27F35
  8
PL1
 10
82.7924657950996448
 20
94.7424333611268139
 30
0.0
 11
82.7924657950996448
 21
87.5424333611267969
 31
0.0
  0
LINE
  5
27F36
  8
PL1
 10
99.192465795099622
 20
94.7424333611268139
 30
0.0
 11
99.192465795099622
 21
87.5424333611267969
 31
0.0
  0
TEXT
  5
27F39
  8
注釈
 10
99.156104022549755
 20
153.2890530185136129
 30
0.0
 40
2.5
  1
表示基板：アクリルマット板t3　UV印刷
  0
LINE
  5
27F3A
  8
注釈
 10
98.6439885657801483
 20
152.6109495695488931
 30
0.0
 11
157.3119976229864108
 21
152.6109495695488931
 31
0.0
  0
TEXT
  5
28924
  8
注釈
  6
CONTINUOUS
 10
240.4775438362802049
 20
132.7067437802222116
 30
0.0
 40
2.5
  1
表示基板：白アクリルt3艶ありUV印刷
  0
ARC
  5
28946
  8
LAYER_1
 10
241.2107455589282097
 20
34.4295697981724587
 30
0.0
 40
4.061787112191297
 50
89.774561763963888
 51
107.409214712158402
  0
ARC
  5
28947
  8
LAYER_1
 10
241.4440047746566904
 20
33.6122148853519818
 30
0.0
 40
4.9115397849239084
 50
107.1528779447292976
 51
122.7041694407162993
  0
ARC
  5
28948
  8
LAYER_1
 10
241.6705589086153054
 20
33.2265119039037629
 30
0.0
 40
5.3585348111072273
 50
122.5143026686880035
 51
151.4422313375411022
  0
ARC
  5
28949
  8
LAYER_1
 10
240.9117265625451125
 20
33.6957115979617896
 30
0.0
 40
4.467999645420317
 50
152.075204693492509
 51
162.4664431061260927
  0
ARC
  5
2894A
  8
LAYER_1
 10
238.3399352175040065
 20
29.2245351753496507
 30
0.0
 40
6.0573570764214688
 50
106.1869913766925038
 51
120.5565189679150961
  0
ARC
  5
2894B
  8
LAYER_1
 10
238.6513741233322889
 20
28.6562530194517606
 30
0.0
 40
6.705084634301282
 50
120.379471610670393
 51
134.0270165613266897
  0
ARC
  5
2894C
  8
LAYER_1
 10
238.544283422079701
 20
28.7558745788737511
 30
0.0
 40
6.5590323467368092
 50
133.959205507972797
 51
147.0394581793796931
  0
ARC
  5
2894D
  8
LAYER_1
 10
237.9145990239314017
 20
29.1736172725396301
 30
0.0
 40
5.8034262729809054
 50
147.117632338662105
 51
161.2393342340184006
  0
ARC
  5
2894E
  8
LAYER_1
 10
237.4560411356179088
 20
29.3588651851233813
 30
0.0
 40
5.309726234547048
 50
161.5406806768095009
 51
164.7130144987235951
  0
ARC
  5
2894F
  8
LAYER_1
 10
236.7085970334493084
 20
29.5524172219542507
 30
0.0
 40
4.537709773950299
 50
164.5821658495225108
 51
181.1379416725700082
  0
ARC
  5
28950
  8
LAYER_1
 10
237.6920874005620021
 20
26.3171574646517001
 30
0.0
 40
6.3534002066741371
 50
136.1264810532690035
 51
150.3280710889852969
  0
ARC
  5
28951
  8
LAYER_1
 10
237.9722228794288128
 20
26.0698859433327712
 30
0.0
 40
6.7267368484317149
 50
116.790182265002997
 51
136.2619295844910141
  0
ARC
  5
28952
  8
LAYER_1
 10
237.5992608621806141
 20
26.7783321084349701
 30
0.0
 40
5.9262456128093781
 50
102.7486763840949067
 51
116.6585473969473981
  0
ARC
  5
28953
  8
LAYER_1
 10
237.3802998233024084
 20
27.6620998612302316
 30
0.0
 40
5.0159800657089448
 50
89.7876254855108442
 51
102.5369260245075935
  0
ARC
  5
28954
  8
LAYER_1
 10
237.3871966034519119
 20
28.6031475684530783
 30
0.0
 40
4.0749146849236491
 50
71.5301524228399046
 51
89.8355527737687538
  0
ARC
  5
28955
  8
LAYER_1
 10
237.5968686759244974
 20
29.3117014070886306
 30
0.0
 40
3.3365310435697562
 50
52.9188080242145418
 51
71.0905070443366895
  0
ARC
  5
28956
  8
LAYER_1
 10
237.6960936699188096
 20
29.4856921424361893
 30
0.0
 40
3.1380026865223201
 50
14.1771758758087394
 51
52.4486940522762808
  0
ARC
  5
28957
  8
LAYER_1
 10
237.188428666489898
 20
29.3337165373471116
 30
0.0
 40
3.667499954995777
 50
1.3016898158341681
 51
14.5366375127989897
  0
ARC
  5
28958
  8
LAYER_1
 10
235.9879153810771015
 20
32.2011559568808394
 30
0.0
 40
5.6071110217436386
 50
330.2289952864763904
 51
344.3549355515215211
  0
ARC
  5
28959
  8
LAYER_1
 10
237.0097927815926084
 20
31.9025066121519103
 30
0.0
 40
4.5425703299292506
 50
344.5063870698654114
 51
1.6792785180651
  0
ARC
  5
2895A
  8
LAYER_1
 10
237.9220401513989884
 20
31.9040779125918483
 30
0.0
 40
3.6307558962827229
 50
2.0763637151197138
 51
19.7748915182061502
  0
ARC
  5
2895B
  8
LAYER_1
 10
238.3583268053887139
 20
32.0417197640753102
 30
0.0
 40
3.1736812024536269
 50
20.1013340273332908
 51
39.2240270737053933
  0
ARC
  5
2895C
  8
LAYER_1
 10
238.3904328084701945
 20
32.0462897337431016
 30
0.0
 40
3.1459641599956858
 50
39.5293078670283577
 51
67.8762855878639328
  0
ARC
  5
2895D
  8
LAYER_1
 10
238.1613061394924102
 20
31.5298452150099493
 30
0.0
 40
3.7107177039315591
 50
67.6020632938591461
 51
83.9860200889705055
  0
ARC
  5
2895E
  8
LAYER_1
 10
238.0625327844120136
 20
30.8348754596127215
 30
0.0
 40
4.4122843997494732
 50
83.6559656790470143
 51
89.596544530868087
  0
ARC
  5
2895F
  8
LAYER_1
 10
238.062629765017391
 20
30.4209611388292487
 30
0.0
 40
4.8261887154397582
 50
89.6322976021641153
 51
95.2458690883205179
  0
ARC
  5
28960
  8
LAYER_1
 10
241.0966989895977122
 20
31.1796461524403909
 30
0.0
 40
5.3346459310121892
 50
114.639532739941302
 51
130.6520302684546948
  0
ARC
  5
28961
  8
LAYER_1
 10
240.7759492965091965
 20
31.8594039414710011
 30
0.0
 40
4.583065110157964
 50
98.6552813760409464
 51
114.5376629644432001
  0
ARC
  5
28962
  8
LAYER_1
 10
240.6440168687867072
 20
32.5690440946106605
 30
0.0
 40
3.861724516169398
 50
89.6240271361895822
 51
98.3045851978559142
  0
ARC
  5
28963
  8
LAYER_1
 10
240.6627603373331965
 20
33.1976282714008519
 30
0.0
 40
3.2330639281711528
 50
69.583717067257524
 51
89.8830917558541245
  0
ARC
  5
28964
  8
LAYER_1
 10
240.8534667323071119
 20
33.7804390598756612
 30
0.0
 40
2.6204531985407669
 50
47.8639240972346727
 51
69.0462712422311711
  0
ARC
  5
28965
  8
LAYER_1
 10
240.9073000241064051
 20
33.8710998800226406
 30
0.0
 40
2.5171937255588661
 50
14.8896963289754805
 51
47.3881179982457326
  0
ARC
  5
28966
  8
LAYER_1
 10
240.5059053773441065
 20
33.7479853279821285
 30
0.0
 40
2.9367885685471879
 50
1.2964334869434411
 51
15.1987052863236798
  0
ARC
  5
28967
  8
LAYER_1
 10
239.5624516407206954
 20
36.0374253520004402
 30
0.0
 40
4.471258562890327
 50
330.1867708438143723
 51
344.3996031047547035
  0
ARC
  5
28968
  8
LAYER_1
 10
240.4066692007583015
 20
35.7986871296171429
 30
0.0
 40
3.5939395294689129
 50
344.446008162477824
 51
3.888023540798522
  0
ARC
  5
28969
  8
LAYER_1
 10
241.1694671106733097
 20
35.8239116200056671
 30
0.0
 40
2.831311374284526
 50
4.4254396626595591
 51
24.0157455462446983
  0
ARC
  5
2896A
  8
LAYER_1
 10
241.4273987154292911
 20
35.8957842029929708
 30
0.0
 40
2.5667579635053799
 50
24.8935828837757498
 51
77.5636605950931823
  0
ARC
  5
2896B
  8
LAYER_1
 10
241.2170566400625944
 20
35.1761960776782701
 30
0.0
 40
3.3151434965926629
 50
76.6918721903346636
 51
89.8328632735586439
  0
ARC
  5
2896C
  8
LAYER_1
 10
243.5912841330552112
 20
28.7668587714053885
 30
0.0
 40
0.1017225618467114
 50
286.824711691118921
 51
340.3071140254266993
  0
ARC
  5
2896D
  8
LAYER_1
 10
243.1217964942663059
 20
29.9143243071974396
 30
0.0
 40
1.3410977289569821
 50
278.5628068442235872
 51
291.8409640360941921
  0
ARC
  5
2896E
  8
LAYER_1
 10
241.9138005135843059
 20
36.7805344730750718
 30
0.0
 40
8.3124184001315644
 50
274.304231162765916
 51
279.7498093500590812
  0
ARC
  5
2896F
  8
LAYER_1
 10
240.206705689771411
 20
57.7452634691038611
 30
0.0
 40
29.3464226217220805
 50
269.5576446168324765
 51
274.5557542030002196
  0
ARC
  5
28970
  8
LAYER_1
 10
239.881169796013495
 20
62.638783468293262
 30
0.0
 40
34.2392110303409112
 50
266.6954060207447128
 51
270.1656119244287879
  0
ARC
  5
28971
  8
LAYER_1
 10
238.5307644335632915
 20
40.8603843783392904
 30
0.0
 40
12.4195286846716701
 50
261.7201575595116196
 51
267.1233650928995189
  0
ARC
  5
28972
  8
LAYER_1
 10
236.8874719745435868
 20
30.0074316622325803
 30
0.0
 40
1.444439721870578
 50
247.0093839856139937
 51
264.2298997619965917
  0
ARC
  5
28973
  8
LAYER_1
 10
236.3397853896728975
 20
28.7430131522163386
 30
0.0
 40
0.067336301869921
 50
188.9129687224925078
 51
255.8306195217344055
  0
ARC
  5
28974
  8
LAYER_1
 10
236.3689153346475109
 20
28.6982198480742809
 30
0.0
 40
0.101637479376685
 50
106.7686079684284977
 51
160.2406452734423965
  0
ARC
  5
28975
  8
LAYER_1
 10
236.8386149954860969
 20
27.5491142851385895
 30
0.0
 40
1.342605501712774
 50
98.5609779356338436
 51
111.819411560531293
  0
ARC
  5
28976
  8
LAYER_1
 10
238.0468645323335863
 20
20.6734261207477701
 30
0.0
 40
8.3233091265428403
 50
94.3019068433134748
 51
99.7399707080134021
  0
ARC
  5
28977
  8
LAYER_1
 10
239.7537207777452863
 20
-0.3013254140215658
 30
0.0
 40
29.3672837109763805
 50
89.5582556005597041
 51
94.5529850135230561
  0
ARC
  5
28978
  8
LAYER_1
 10
240.0784789662185972
 20
-5.1921221396540602
 30
0.0
 40
34.2573487630387916
 50
86.6963356821013349
 51
90.1644778980448649
  0
ARC
  5
28979
  8
LAYER_1
 10
241.4289497655477135
 20
16.58333704892976
 30
0.0
 40
12.4406029876012507
 50
81.7316747771048
 51
87.1262815684749938
  0
ARC
  5
2897A
  8
LAYER_1
 10
243.0726188588944012
 20
27.4548774166579399
 30
0.0
 40
1.4470717268548641
 50
67.0437654305045641
 51
84.2331262618125862
  0
ARC
  5
2897B
  8
LAYER_1
 10
243.6206354184704139
 20
28.7221332527823101
 30
0.0
 40
0.0672383483216169
 50
8.9385958680350353
 51
75.8986854981506696
  0
LINE
  5
2897C
  8
LAYER_1
 10
245.2795171856176921
 20
35.3711604693537325
 30
0.0
 11
247.9216021856177008
 21
35.3711604693537325
 31
0.0
  0
ARC
  5
2897D
  8
LAYER_1
 10
247.9737981367148052
 20
33.9471458051643822
 30
0.0
 40
1.4249709404536091
 50
60.8735246432737824
 51
92.0991844703550697
  0
ARC
  5
2897E
  8
LAYER_1
 10
248.2596556082031896
 20
34.5705998785849289
 30
0.0
 40
0.7431625185416341
 50
37.62127235789022
 51
56.7259719698191134
  0
ARC
  5
2897F
  8
LAYER_1
 10
248.1567671710683953
 20
34.4945965822020497
 30
0.0
 40
0.8710559495582748
 50
357.4156439143682746
 51
37.4497418045678714
  0
ARC
  5
28980
  8
LAYER_1
 10
247.69025180723321
 20
34.5016583373573198
 30
0.0
 40
1.3374883172564449
 50
345.4682483048349013
 51
358.0145653240612091
  0
ARC
  5
28981
  8
LAYER_1
 10
247.5333326407896948
 20
34.5307690251501285
 30
0.0
 40
1.496733654862364
 50
312.6089194964865214
 51
345.8967725871881953
  0
ARC
  5
28982
  8
LAYER_1
 10
247.5313617077057984
 20
34.5588428621826722
 30
0.0
 40
1.5188315264023671
 50
286.9040539110612826
 51
311.9466621261058208
  0
ARC
  5
28983
  8
LAYER_1
 10
247.7374511184034134
 20
32.0877565758214729
 30
0.0
 40
1.0447760699031221
 50
40.4744827001057175
 51
76.9708669597120974
  0
ARC
  5
28984
  8
LAYER_1
 10
247.9859635930010029
 20
32.3675919465800277
 30
0.0
 40
0.6760589036467451
 50
27.0446379743280616
 51
36.1007425573102125
  0
ARC
  5
28985
  8
LAYER_1
 10
247.7229397928564083
 20
32.2652442033038227
 30
0.0
 40
0.9572801154065989
 50
347.3279552664337757
 51
25.3423825027547913
  0
ARC
  5
28986
  8
LAYER_1
 10
247.0899436272908929
 20
32.307955900405922
 30
0.0
 40
1.5872056216746311
 50
345.4000175847805281
 51
350.8385374984778764
  0
ARC
  5
28987
  8
LAYER_1
 10
246.9116868873292105
 20
32.337289486009972
 30
0.0
 40
1.7671778740758091
 50
321.2570294209676263
 51
345.9365033352602268
  0
ARC
  5
28988
  8
LAYER_1
 10
246.8639088621395956
 20
32.3653842383837187
 30
0.0
 40
1.8220428700690401
 50
297.9590868388689842
 51
321.5082199876162008
  0
ARC
  5
28989
  8
LAYER_1
 10
246.9918714297569124
 20
32.2720842734559596
 30
0.0
 40
1.6810669050974929
 50
275.1259550640331213
 51
295.5970031780291833
  0
LINE
  5
2898A
  8
LAYER_1
 10
247.1420671856176057
 20
30.5977404693537416
 30
0.0
 11
246.4927621856176927
 21
30.5315004693536309
 31
0.0
  0
LINE
  5
2898B
  8
LAYER_1
 10
246.4927621856176927
 20
30.5315004693536309
 30
0.0
 11
244.0563271856175902
 21
30.5315004693536309
 31
0.0
  0
LINE
  5
2898C
  8
LAYER_1
 10
244.0563271856175902
 20
30.5315004693536309
 30
0.0
 11
245.2795171856176921
 21
35.3711604693537325
 31
0.0
  0
LINE
  5
2898D
  8
LAYER_1
 10
245.7450871856175922
 20
31.5706854693537196
 30
0.0
 11
246.4640971856173906
 21
31.5706854693537196
 31
0.0
  0
ARC
  5
2898E
  8
LAYER_1
 10
246.5150637072260054
 20
32.5305206030421701
 30
0.0
 40
0.9611873231517398
 50
266.9604918419499882
 51
301.1827524538215926
  0
ARC
  5
2898F
  8
LAYER_1
 10
246.6255993715988097
 20
32.2271939914717791
 30
0.0
 40
0.6474756930832206
 50
306.7209793112883744
 51
346.5729458564034076
  0
ARC
  5
28990
  8
LAYER_1
 10
246.8933357792903109
 20
32.1915526710553195
 30
0.0
 40
0.3797785170567319
 50
342.4200028029986242
 51
37.4683038372186985
  0
ARC
  5
28991
  8
LAYER_1
 10
246.9392928094327999
 20
32.1646308864993529
 30
0.0
 40
0.3630462635295719
 50
45.2767803303608076
 51
76.0047923097400826
  0
ARC
  5
28992
  8
LAYER_1
 10
246.7401300876485095
 20
31.3955940246905811
 30
0.0
 40
1.15744347097981
 50
75.6450922392333638
 51
91.5195385004562638
  0
LINE
  5
28993
  8
LAYER_1
 10
246.7094371856177872
 20
32.5526304693537227
 30
0.0
 11
245.9931721856177944
 21
32.5526304693537227
 31
0.0
  0
LINE
  5
28994
  8
LAYER_1
 10
245.9931721856177944
 20
32.5526304693537227
 30
0.0
 11
245.7450871856175922
 21
31.5706854693537196
 31
0.0
  0
LINE
  5
28995
  8
LAYER_1
 10
246.2251021856176862
 20
33.471035469353609
 30
0.0
 11
246.8384071856175979
 21
33.471035469353609
 31
0.0
  0
ARC
  5
28996
  8
LAYER_1
 10
246.8901040422007043
 20
34.3150142467712698
 30
0.0
 40
0.8455606079471728
 50
266.4947987045131867
 51
301.2083112159746179
  0
ARC
  5
28997
  8
LAYER_1
 10
246.959302695010507
 20
34.0635712032175419
 30
0.0
 40
0.5988843306289116
 50
308.0266514935095756
 51
348.0771909355793241
  0
ARC
  5
28998
  8
LAYER_1
 10
247.1926839083546099
 20
34.059791467752909
 30
0.0
 40
0.3724271874308785
 50
341.2121082091247217
 51
34.4316897395440407
  0
ARC
  5
28999
  8
LAYER_1
 10
247.2712637002568954
 20
34.0525738453172835
 30
0.0
 40
0.315741408356623
 50
43.6138282060635234
 51
76.4411853446352154
  0
ARC
  5
2899A
  8
LAYER_1
 10
247.102115956265493
 20
33.3871318204779328
 30
0.0
 40
1.00232839298578
 50
75.9595797490934217
 51
91.2661861993573353
  0
LINE
  5
2899B
  8
LAYER_1
 10
247.0799671856175053
 20
34.3892154693537293
 30
0.0
 11
246.4573021856176069
 21
34.3892154693537293
 31
0.0
  0
LINE
  5
2899C
  8
LAYER_1
 10
246.4573021856176069
 20
34.3892154693537293
 30
0.0
 11
246.2251021856176862
 21
33.471035469353609
 31
0.0
  0
LINE
  5
2899D
  8
LAYER_1
 10
248.70986718561781
 20
30.5315004693536309
 30
0.0
 11
249.932877185617599
 21
35.3711604693537325
 31
0.0
  0
LINE
  5
2899E
  8
LAYER_1
 10
249.932877185617599
 20
35.3711604693537325
 30
0.0
 11
252.2851171856177075
 21
35.3711604693537325
 31
0.0
  0
ARC
  5
2899F
  8
LAYER_1
 10
252.4016359498702116
 20
32.3034440767974118
 30
0.0
 40
3.069928417338375
 50
73.8561888366571679
 51
92.1751768912553331
  0
ARC
  5
289A0
  8
LAYER_1
 10
252.9898237847853864
 20
34.537173213152812
 30
0.0
 40
0.7628023412243909
 50
21.0698800330396807
 51
69.6391164072337716
  0
ARC
  5
289A1
  8
LAYER_1
 10
252.6340867819901064
 20
34.4113541238330001
 30
0.0
 40
1.140036662757081
 50
345.5354904864734067
 51
20.5430428520186901
  0
ARC
  5
289A2
  8
LAYER_1
 10
251.9217014454584955
 20
34.4862689916845397
 30
0.0
 40
1.851555814057978
 50
345.6442340425383009
 51
348.7988082093490902
  0
ARC
  5
289A3
  8
LAYER_1
 10
251.9432443201679916
 20
34.4583694359572235
 30
0.0
 40
1.823897084691245
 50
321.8539172287270844
 51
346.3255241773509852
  0
ARC
  5
289A4
  8
LAYER_1
 10
251.8888091890206056
 20
34.5338892486470286
 30
0.0
 40
1.9135267020430531
 50
298.8727875022022999
 51
321.0823110538232186
  0
ARC
  5
289A5
  8
LAYER_1
 10
251.8527527391102865
 20
34.7177425946759612
 30
0.0
 40
2.0927183465168229
 50
281.4792839454264026
 51
297.3064737345412141
  0
ARC
  5
289A6
  8
LAYER_1
 10
252.0017284521593979
 20
31.8092856088922105
 30
0.0
 40
0.8983516950935942
 50
49.0403829401645766
 51
72.676183220807971
  0
ARC
  5
289A7
  8
LAYER_1
 10
251.759316624113211
 20
31.7853075340270799
 30
0.0
 40
1.0883095829221889
 50
24.2799524775041
 51
40.1951854723321489
  0
ARC
  5
289A8
  8
LAYER_1
 10
251.8686156250265071
 20
31.7024548603106986
 30
0.0
 40
1.029817394424557
 50
12.8736747914057599
 51
30.9977568592650101
  0
LINE
  5
289A9
  8
LAYER_1
 10
252.8725471856172931
 20
31.9319004693536215
 30
0.0
 11
253.205457185617405
 21
30.5315004693536309
 31
0.0
  0
LINE
  5
289AA
  8
LAYER_1
 10
253.205457185617405
 20
30.5315004693536309
 30
0.0
 11
251.6114671856174994
 21
30.5315004693536309
 31
0.0
  0
LINE
  5
289AB
  8
LAYER_1
 10
251.6114671856174994
 20
30.5315004693536309
 30
0.0
 11
251.2303171856177926
 21
32.0103804693537484
 31
0.0
  0
ARC
  5
289AC
  8
LAYER_1
 10
250.4680404113817076
 20
31.9014892434018016
 30
0.0
 40
0.7700150515601198
 50
8.1297004547847145
 51
38.7257443803312214
  0
ARC
  5
289AD
  8
LAYER_1
 10
250.7682379633592973
 20
32.0383044263707291
 30
0.0
 40
0.4574653460994352
 50
48.9327628569716211
 51
92.1905602036560623
  0
LINE
  5
289AE
  8
LAYER_1
 10
250.7507521856173014
 20
32.4954354693536231
 30
0.0
 11
250.6256971856178097
 21
32.4954354693536231
 31
0.0
  0
LINE
  5
289AF
  8
LAYER_1
 10
250.6256971856178097
 20
32.4954354693536231
 30
0.0
 11
250.1295271856174054
 21
30.5315004693536309
 31
0.0
  0
LINE
  5
289B0
  8
LAYER_1
 10
250.1295271856174054
 20
30.5315004693536309
 30
0.0
 11
248.70986718561781
 21
30.5315004693536309
 31
0.0
  0
LINE
  5
289B1
  8
LAYER_1
 10
250.8563671856176995
 20
33.4070904693537329
 30
0.0
 11
251.4492871856176919
 21
33.4070904693537329
 31
0.0
  0
ARC
  5
289B2
  8
LAYER_1
 10
251.2314851285549082
 20
35.8581849917938698
 30
0.0
 40
2.4607523430846978
 50
275.0779145456456263
 51
284.2927593607810195
  0
ARC
  5
289B3
  8
LAYER_1
 10
251.7288604033435035
 20
33.974414580748892
 30
0.0
 40
0.5127793700478223
 50
282.4017088068443968
 51
317.2691553026588167
  0
ARC
  5
289B4
  8
LAYER_1
 10
251.6651766266112986
 20
34.0631486106839532
 30
0.0
 40
0.6201583485358368
 50
315.2392622451386046
 51
345.5021097717356042
  0
ARC
  5
289B5
  8
LAYER_1
 10
251.8772594263878091
 20
34.0400198641824829
 30
0.0
 40
0.4101893517597064
 50
341.2096735858092984
 51
33.9824170259752165
  0
ARC
  5
289B6
  8
LAYER_1
 10
251.9813186221321928
 20
34.0362950945348004
 30
0.0
 40
0.3316889688606185
 50
44.6240111567869704
 51
75.8324610552367062
  0
ARC
  5
289B7
  8
LAYER_1
 10
251.761612219472994
 20
33.1951775036373817
 30
0.0
 40
1.2010195000606549
 50
75.4911943509529664
 51
91.7983342263070767
  0
LINE
  5
289B8
  8
LAYER_1
 10
251.7239221856175106
 20
34.3956054693537396
 30
0.0
 11
251.105892185617904
 21
34.3956054693537396
 31
0.0
  0
LINE
  5
289B9
  8
LAYER_1
 10
251.105892185617904
 20
34.3956054693537396
 30
0.0
 11
250.8563671856176995
 21
33.4070904693537329
 31
0.0
  0
LINE
  5
289BA
  8
LAYER_1
 10
254.611122185617603
 20
35.3711604693537325
 30
0.0
 11
256.0246171856173873
 21
35.3711604693537325
 31
0.0
  0
LINE
  5
289BB
  8
LAYER_1
 10
256.0246171856173873
 20
35.3711604693537325
 30
0.0
 11
254.8013371856177116
 21
30.5315004693536309
 31
0.0
  0
LINE
  5
289BC
  8
LAYER_1
 10
254.8013371856177116
 20
30.5315004693536309
 30
0.0
 11
253.3876171856176995
 21
30.5315004693536309
 31
0.0
  0
LINE
  5
289BD
  8
LAYER_1
 10
253.3876171856176995
 20
30.5315004693536309
 30
0.0
 11
254.611122185617603
 21
35.3711604693537325
 31
0.0
  0
LINE
  5
289BE
  8
LAYER_1
 10
256.7363371856175718
 20
35.3711604693537325
 30
0.0
 11
258.8331121856176082
 21
35.3711604693537325
 31
0.0
  0
ARC
  5
289BF
  8
LAYER_1
 10
258.8800860187047874
 20
32.5694933336297581
 30
0.0
 40
2.8020608987655211
 50
78.6033737127260252
 51
90.9605531637776892
  0
ARC
  5
289C0
  8
LAYER_1
 10
259.1673064867943026
 20
33.9711624587380285
 30
0.0
 40
1.3712817681488541
 50
63.0020256225076807
 51
78.7950729478807546
  0
ARC
  5
289C1
  8
LAYER_1
 10
259.2559350482541163
 20
34.169155641061792
 30
0.0
 40
1.154683189750549
 50
26.3079137632610482
 51
62.4606229747105672
  0
ARC
  5
289C2
  8
LAYER_1
 10
258.7684689839491057
 20
33.9501642132717407
 30
0.0
 40
1.6888312631082329
 50
358.487941985199825
 51
25.6384280704620693
  0
ARC
  5
289C3
  8
LAYER_1
 10
256.6637437160927107
 20
33.9338096434472192
 30
0.0
 40
3.7930733671143639
 50
345.2483551151722168
 51
359.5738860385366138
  0
ARC
  5
289C4
  8
LAYER_1
 10
256.0549406327082806
 20
33.9476072661485802
 30
0.0
 40
4.3876107241434781
 50
330.1632220771692801
 51
347.0987649110165876
  0
ARC
  5
289C5
  8
LAYER_1
 10
257.4052458037813267
 20
33.3237028214753934
 30
0.0
 40
2.9088158070477328
 50
308.5314921816863034
 51
327.5895969958036176
  0
ARC
  5
289C6
  8
LAYER_1
 10
257.8943652181355901
 20
32.6783912696857115
 30
0.0
 40
2.0994056318545931
 50
286.3242758456004822
 51
309.0601887236048242
  0
ARC
  5
289C7
  8
LAYER_1
 10
257.5301623072026018
 20
34.0199109178793719
 30
0.0
 40
3.4893200980864698
 50
271.308319205475982
 51
285.8719752346564746
  0
LINE
  5
289C8
  8
LAYER_1
 10
257.6098321856175062
 20
30.5315004693536309
 30
0.0
 11
255.5130571856174129
 21
30.5315004693536309
 31
0.0
  0
LINE
  5
289C9
  8
LAYER_1
 10
255.5130571856174129
 20
30.5315004693536309
 30
0.0
 11
256.7363371856175718
 21
35.3711604693537325
 31
0.0
  0
LINE
  5
289CA
  8
LAYER_1
 10
257.8726321856178743
 20
34.2742404693537708
 30
0.0
 11
257.2038421856173045
 21
31.628375469353589
 31
0.0
  0
LINE
  5
289CB
  8
LAYER_1
 10
257.2038421856173045
 20
31.628375469353589
 30
0.0
 11
257.5482271856175771
 21
31.628375469353589
 31
0.0
  0
ARC
  5
289CC
  8
LAYER_1
 10
257.6301740735692078
 20
33.2208766014039298
 30
0.0
 40
1.5946081487395529
 50
267.0542732342340173
 51
291.0189238218827086
  0
ARC
  5
289CD
  8
LAYER_1
 10
257.7517125662864146
 20
32.5924607030673172
 30
0.0
 40
0.9708882712832799
 50
297.6400244211740755
 51
329.2196595062981146
  0
ARC
  5
289CE
  8
LAYER_1
 10
256.9351361594049763
 20
33.1124003662410402
 30
0.0
 40
1.9387304021835861
 50
328.3679858862028027
 51
341.2531074096867201
  0
ARC
  5
289CF
  8
LAYER_1
 10
253.9357052495547862
 20
34.1724346174154121
 30
0.0
 40
5.1198714078097929
 50
340.8075339832130908
 51
346.0290607212377267
  0
ARC
  5
289D0
  8
LAYER_1
 10
256.0566458409301163
 20
33.7305704430115583
 30
0.0
 40
2.9561655640939879
 50
344.4150221194735764
 51
357.011912375995621
  0
ARC
  5
289D1
  8
LAYER_1
 10
258.1691951702435972
 20
33.6398054348553828
 30
0.0
 40
0.8419824618604252
 50
355.6860656230007862
 51
24.6055315287036791
  0
ARC
  5
289D2
  8
LAYER_1
 10
258.4664308339914101
 20
33.6965058631699605
 30
0.0
 40
0.5528644265706618
 50
32.1101833226562903
 51
82.933262247935815
  0
ARC
  5
289D3
  8
LAYER_1
 10
258.239265138763983
 20
32.765364807049373
 30
0.0
 40
1.5089589918127491
 50
78.7190752547131325
 51
90.6021439399230957
  0
LINE
  5
289D4
  8
LAYER_1
 10
258.2234071856178161
 20
34.2742404693537708
 30
0.0
 11
257.8726321856178743
 21
34.2742404693537708
 31
0.0
  0
LINE
  5
289D5
  8
LAYER_1
 10
262.8758221856173236
 20
32.2850604693537377
 30
0.0
 11
263.1303871856175078
 21
33.2924304693535476
 31
0.0
  0
LINE
  5
289D6
  8
LAYER_1
 10
263.1303871856175078
 20
33.2924304693535476
 30
0.0
 11
265.3100971856177921
 21
33.2924304693535476
 31
0.0
  0
LINE
  5
289D7
  8
LAYER_1
 10
265.3100971856177921
 20
33.2924304693535476
 30
0.0
 11
264.7876471856175158
 21
31.2266604693536216
 31
0.0
  0
ARC
  5
289D8
  8
LAYER_1
 10
261.4616355395078244
 20
36.4556429976442473
 30
0.0
 40
6.197145451837156
 50
289.4458878751157727
 51
302.4593151833418005
  0
ARC
  5
289D9
  8
LAYER_1
 10
262.4118526846399959
 20
34.3084454610056966
 30
0.0
 40
3.8603428990661861
 50
268.9543052361935906
 51
286.7558603060322184
  0
ARC
  5
289DA
  8
LAYER_1
 10
262.2779292734330738
 20
33.1886813005204999
 30
0.0
 40
2.7406709341861379
 50
248.9158125929517098
 51
271.3270674414453083
  0
ARC
  5
289DB
  8
LAYER_1
 10
261.8303618807420889
 20
31.8484384258337201
 30
0.0
 40
1.330711647997366
 50
236.2206898820591903
 51
246.1361134443301069
  0
ARC
  5
289DC
  8
LAYER_1
 10
261.857091584395107
 20
31.8699652492560901
 30
0.0
 40
1.363504538265107
 50
190.6768014419729127
 51
235.7900331205499072
  0
ARC
  5
289DD
  8
LAYER_1
 10
262.9679562116784268
 20
32.1549176692723719
 30
0.0
 40
2.5090282592793569
 50
168.8164503810168924
 51
192.3717147671212047
  0
ARC
  5
289DE
  8
LAYER_1
 10
264.563546109727497
 20
31.9419739958507911
 30
0.0
 40
4.1168488754369452
 50
165.8044784944451067
 51
170.2162460051567905
  0
ARC
  5
289DF
  8
LAYER_1
 10
264.3027695553772105
 20
32.0310728179212987
 30
0.0
 40
3.8422508665244028
 50
147.3720260493203114
 51
166.1389199531311078
  0
ARC
  5
289E0
  8
LAYER_1
 10
263.9110479644788256
 20
32.2414414278589092
 30
0.0
 40
3.3990906192284842
 50
142.0941684348694878
 51
146.7982469045913092
  0
ARC
  5
289E1
  8
LAYER_1
 10
263.5841504071640884
 20
32.5035015940620724
 30
0.0
 40
2.9801665841958811
 50
114.3016217875122038
 51
142.2083025589388967
  0
ARC
  5
289E2
  8
LAYER_1
 10
263.471938900072189
 20
32.6203923511974665
 30
0.0
 40
2.827972521464893
 50
91.1497867990332793
 51
113.2041842212337031
  0
ARC
  5
289E3
  8
LAYER_1
 10
263.6510406362444883
 20
31.0536910408543108
 30
0.0
 40
4.4004293222616653
 50
89.8072760982077511
 51
93.0723363237292745
  0
ARC
  5
289E4
  8
LAYER_1
 10
263.7495824173566916
 20
31.1592804652074911
 30
0.0
 40
4.2956313093945253
 50
80.8406804002745787
 51
91.1170106214640327
  0
ARC
  5
289E5
  8
LAYER_1
 10
264.2123639784414877
 20
33.9679204285260496
 30
0.0
 40
1.449170263607291
 50
67.7227908608122533
 51
81.2281772025248188
  0
ARC
  5
289E6
  8
LAYER_1
 10
264.3578568530560915
 20
34.3394764809762805
 30
0.0
 40
1.0502107343714651
 50
29.6019412194265286
 51
67.3834963642007381
  0
ARC
  5
289E7
  8
LAYER_1
 10
264.0958068908564087
 20
34.2212059180084935
 30
0.0
 40
1.3367446418150271
 50
12.0284717446247207
 51
28.4612395169361108
  0
ARC
  5
289E8
  8
LAYER_1
 10
263.3712068576667207
 20
34.0702008131756813
 30
0.0
 40
2.0769072424682671
 50
0.3851088717366624
 51
11.9370111444531002
  0
LINE
  5
289E9
  8
LAYER_1
 10
265.4480671856176173
 20
34.0841604693534705
 30
0.0
 11
264.0190021856174099
 21
33.8282004693534972
 31
0.0
  0
ARC
  5
289EA
  8
LAYER_1
 10
263.4285331691381771
 20
33.8205337829748203
 30
0.0
 40
0.5905187867476483
 50
0.7438901580795834
 51
45.9041293427051471
  0
ARC
  5
289EB
  8
LAYER_1
 10
263.4827781029881066
 20
33.8253537148506922
 30
0.0
 40
0.5504628943772018
 50
49.6125561074093682
 51
75.1740881865073618
  0
ARC
  5
289EC
  8
LAYER_1
 10
263.3760659834188118
 20
33.4097122081038833
 30
0.0
 40
0.9795777952610039
 50
75.3610322459178263
 51
90.7068026431518462
  0
ARC
  5
289ED
  8
LAYER_1
 10
263.3658118898595717
 20
33.2162647721160127
 30
0.0
 40
1.1729521243290679
 50
90.0893765151710255
 51
134.8680212611444063
  0
ARC
  5
289EE
  8
LAYER_1
 10
263.5807088012476243
 20
32.9688837105983694
 30
0.0
 40
1.5000485881633809
 50
134.0194005096929004
 51
149.6127741089810002
  0
ARC
  5
289EF
  8
LAYER_1
 10
264.6137163703592137
 20
32.381095270827231
 30
0.0
 40
2.6885206770994179
 50
149.9430192559258046
 51
167.4256009886480001
  0
ARC
  5
289F0
  8
LAYER_1
 10
264.7777413955425914
 20
32.2011864373069514
 30
0.0
 40
2.8911648733778308
 50
164.6523584883155138
 51
177.1184240152406915
  0
ARC
  5
289F1
  8
LAYER_1
 10
262.9047469936966763
 20
32.2767104882363611
 30
0.0
 40
1.016914512422336
 50
176.063051651654888
 51
205.1737799455270874
  0
ARC
  5
289F2
  8
LAYER_1
 10
262.5379319337604898
 20
32.1622501297484433
 30
0.0
 40
0.6384089366192179
 50
209.8855726606734038
 51
256.4482021359423243
  0
ARC
  5
289F3
  8
LAYER_1
 10
262.6635978156190276
 20
32.619639258632958
 30
0.0
 40
1.112611210028378
 50
255.6762564748698026
 51
270.6537320487651073
  0
ARC
  5
289F4
  8
LAYER_1
 10
262.671969583965506
 20
33.089520058744931
 30
0.0
 40
1.582425493277454
 50
270.1565110902428728
 51
287.4380551532955792
  0
ARC
  5
289F5
  8
LAYER_1
 10
262.0817598427926782
 20
34.6988860403071584
 30
0.0
 40
3.2956888445078758
 50
288.8428852950621035
 51
299.4190851209165203
  0
LINE
  5
289F6
  8
LAYER_1
 10
263.7005821856178045
 20
31.8281754693536811
 30
0.0
 11
263.8162321856174799
 21
32.2850604693537377
 31
0.0
  0
LINE
  5
289F7
  8
LAYER_1
 10
263.8162321856174799
 20
32.2850604693537377
 30
0.0
 11
262.8758221856173236
 21
32.2850604693537377
 31
0.0
  0
LINE
  5
289F8
  8
LAYER_1
 10
266.3510821856174857
 20
35.3711604693537325
 30
0.0
 11
270.1305421856171733
 21
35.3711604693537325
 31
0.0
  0
LINE
  5
289F9
  8
LAYER_1
 10
270.1305421856171733
 20
35.3711604693537325
 30
0.0
 11
269.8694971856174902
 21
34.3381854693536468
 31
0.0
  0
LINE
  5
289FA
  8
LAYER_1
 10
269.8694971856174902
 20
34.3381854693536468
 30
0.0
 11
267.5032621856174728
 21
34.3381854693536468
 31
0.0
  0
LINE
  5
289FB
  8
LAYER_1
 10
267.5032621856174728
 20
34.3381854693536468
 30
0.0
 11
267.3098071856173874
 21
33.5733654693537673
 31
0.0
  0
LINE
  5
289FC
  8
LAYER_1
 10
267.3098071856173874
 20
33.5733654693537673
 30
0.0
 11
269.5079671856178152
 21
33.5733654693537673
 31
0.0
  0
LINE
  5
289FD
  8
LAYER_1
 10
269.5079671856178152
 20
33.5733654693537673
 30
0.0
 11
269.2580371856179227
 21
32.5845804693537673
 31
0.0
  0
LINE
  5
289FE
  8
LAYER_1
 10
269.2580371856179227
 20
32.5845804693537673
 30
0.0
 11
267.0603721856173252
 21
32.5845804693537673
 31
0.0
  0
LINE
  5
289FF
  8
LAYER_1
 10
267.0603721856173252
 20
32.5845804693537673
 30
0.0
 11
266.8183621856172749
 21
31.628375469353589
 31
0.0
  0
LINE
  5
28A00
  8
LAYER_1
 10
266.8183621856172749
 20
31.628375469353589
 30
0.0
 11
269.2527721856175731
 21
31.628375469353589
 31
0.0
  0
LINE
  5
28A01
  8
LAYER_1
 10
269.2527721856175731
 20
31.628375469353589
 30
0.0
 11
268.9755721856175796
 21
30.5315004693536309
 31
0.0
  0
LINE
  5
28A02
  8
LAYER_1
 10
268.9755721856175796
 20
30.5315004693536309
 30
0.0
 11
265.1276221856173265
 21
30.5315004693536309
 31
0.0
  0
LINE
  5
28A03
  8
LAYER_1
 10
265.1276221856173265
 20
30.5315004693536309
 30
0.0
 11
266.3510821856174857
 21
35.3711604693537325
 31
0.0
  0
ARC
  5
28A04
  8
LAYER_1
 10
275.529497456417289
 20
32.0025924001860105
 30
0.0
 40
3.9858377333198041
 50
147.7525971632780113
 51
166.2771445676542044
  0
ARC
  5
28A05
  8
LAYER_1
 10
274.6925489582919795
 20
32.4798819019376523
 30
0.0
 40
3.0236210073721939
 50
130.0690664146655138
 51
146.9395040129861911
  0
ARC
  5
28A06
  8
LAYER_1
 10
274.5738731322674084
 20
32.5985972781381221
 30
0.0
 40
2.8564152225531569
 50
88.5481201800074302
 51
129.7802089671673968
  0
ARC
  5
28A07
  8
LAYER_1
 10
274.6997435244139183
 20
32.847921066747638
 30
0.0
 40
2.6067233982652098
 50
68.0444921811749737
 51
91.1759320652749352
  0
ARC
  5
28A08
  8
LAYER_1
 10
275.1043888300969229
 20
33.9932582773802423
 30
0.0
 40
1.394165998988335
 50
37.1528396799173635
 51
65.8688005585868268
  0
ARC
  5
28A09
  8
LAYER_1
 10
275.1590668774613277
 20
34.0532959066066496
 30
0.0
 40
1.3144104340012059
 50
34.8928281860841523
 51
36.5064144919186333
  0
ARC
  5
28A0A
  8
LAYER_1
 10
274.9742842990468148
 20
33.9429498217195373
 30
0.0
 40
1.529171671139065
 50
4.7213392611383442
 51
34.3234785295098277
  0
ARC
  5
28A0B
  8
LAYER_1
 10
273.6965498526665783
 20
33.8035989859081809
 30
0.0
 40
2.8142423131008711
 50
345.0625063153801761
 51
5.407625560374246
  0
ARC
  5
28A0C
  8
LAYER_1
 10
272.1940456073220957
 20
34.0541904644896221
 30
0.0
 40
4.3329996056504019
 50
345.7505065124349812
 51
346.982463476560099
  0
ARC
  5
28A0D
  8
LAYER_1
 10
272.2497979312345251
 20
33.9821697955070121
 30
0.0
 40
4.2616041275512373
 50
328.4923948782799812
 51
346.5045268133274021
  0
ARC
  5
28A0E
  8
LAYER_1
 10
273.3611403349930811
 20
33.3940114565893609
 30
0.0
 40
3.0077745695581628
 50
323.2952654849420924
 51
326.9805880008955228
  0
ARC
  5
28A0F
  8
LAYER_1
 10
273.4351110724498994
 20
33.3298833978586018
 30
0.0
 40
2.9101504083620759
 50
301.5947601662142006
 51
323.4370500979900953
  0
ARC
  5
28A10
  8
LAYER_1
 10
273.4714500916335851
 20
33.2891395746185026
 30
0.0
 40
2.8564236955994651
 50
297.2942359294659127
 51
301.4020641809069048
  0
ARC
  5
28A11
  8
LAYER_1
 10
273.5483611385611766
 20
33.1715307367805181
 30
0.0
 40
2.7166789441640979
 50
274.4903292873166833
 51
296.9901681630224175
  0
ARC
  5
28A12
  8
LAYER_1
 10
273.438579610037209
 20
34.05537886886151
 30
0.0
 40
3.606633618703353
 50
269.9800242771020748
 51
275.1297209886756718
  0
ARC
  5
28A13
  8
LAYER_1
 10
273.3718824898228945
 20
33.2281721632979696
 30
0.0
 40
2.7801969535979869
 50
248.9055603910290984
 51
271.3487406626716734
  0
ARC
  5
28A14
  8
LAYER_1
 10
273.0176111103538119
 20
32.0645565572930309
 30
0.0
 40
1.5695361395522409
 50
239.6964235952420097
 51
245.6818838211925993
  0
ARC
  5
28A15
  8
LAYER_1
 10
272.884762197637599
 20
31.8153203139056515
 30
0.0
 40
1.287368955726123
 50
206.8460866261441993
 51
239.2040453520845915
  0
ARC
  5
28A16
  8
LAYER_1
 10
273.3012247916506112
 20
32.0416246564488816
 30
0.0
 40
1.761198783842185
 50
196.722424513197609
 51
207.2963811448979072
  0
ARC
  5
28A17
  8
LAYER_1
 10
273.6769814953307218
 20
32.1152594101606468
 30
0.0
 40
2.142581948199862
 50
170.161916933560093
 51
195.7169537804969082
  0
ARC
  5
28A18
  8
LAYER_1
 10
275.784771773794489
 20
31.8964565948848993
 30
0.0
 40
4.2592158031455458
 50
165.7047646944490111
 51
172.1069549229071072
  0
ARC
  5
28A19
  8
LAYER_1
 10
275.66635207123079
 20
32.2214754621669925
 30
0.0
 40
2.695081430532988
 50
164.5735447702016927
 51
177.6191137185705884
  0
ARC
  5
28A1A
  8
LAYER_1
 10
273.9164978385915106
 20
32.2783624162653524
 30
0.0
 40
0.9445076402841618
 50
176.6572591304733919
 51
204.6174517497206864
  0
ARC
  5
28A1B
  8
LAYER_1
 10
273.5753168109101239
 20
32.1631087078181892
 30
0.0
 40
0.58751498586236
 50
208.2617181483084039
 51
257.2898344849895125
  0
ARC
  5
28A1C
  8
LAYER_1
 10
273.6658940718543249
 20
32.5302440689842101
 30
0.0
 40
0.9656123893999028
 50
256.8400107177509994
 51
270.4021908845627991
  0
ARC
  5
28A1D
  8
LAYER_1
 10
273.6723541691707737
 20
32.689741575732711
 30
0.0
 40
1.125086151324209
 50
270.0161952046378246
 51
313.8545177136984989
  0
ARC
  5
28A1E
  8
LAYER_1
 10
273.5086422356565095
 20
32.821199518726111
 30
0.0
 40
1.3335779702758801
 50
315.0135465053107282
 51
331.0666571105006142
  0
ARC
  5
28A1F
  8
LAYER_1
 10
271.9362414753492203
 20
33.6686702043439468
 30
0.0
 40
3.1197739376619791
 50
331.4160143473537232
 51
347.7094341875402961
  0
ARC
  5
28A20
  8
LAYER_1
 10
272.6867965808814915
 20
33.6378861543278873
 30
0.0
 40
2.3833992721033441
 50
344.5901647894198732
 51
358.2366466253091062
  0
ARC
  5
28A21
  8
LAYER_1
 10
274.1590659168392108
 20
33.6055043020425828
 30
0.0
 40
0.9109225736327495
 50
357.4228767549531085
 51
25.9275214688636808
  0
ARC
  5
28A22
  8
LAYER_1
 10
274.4578795612633257
 20
33.7100848127725996
 30
0.0
 40
0.5975807231226897
 50
29.4386399138341588
 51
77.7618383453055628
  0
ARC
  5
28A23
  8
LAYER_1
 10
274.3630970715324793
 20
33.3256532197591469
 30
0.0
 40
0.9934301130975295
 50
77.1194225658217647
 51
90.388723851605306
  0
ARC
  5
28A24
  8
LAYER_1
 10
274.3605667536946271
 20
33.2412553600501397
 30
0.0
 40
1.0778133298971919
 50
90.2237781728035344
 51
135.350689889891413
  0
ARC
  5
28A25
  8
LAYER_1
 10
274.5691761970766152
 20
33.0010129712932923
 30
0.0
 40
1.395268448851593
 50
134.3523626774768047
 51
150.3132525896095899
  0
ARC
  5
28A26
  8
LAYER_1
 10
275.7655498338033908
 20
32.3373821253351679
 30
0.0
 40
2.7633279261282508
 50
150.6447260190495001
 51
167.4385154248390961
  0
LINE
  5
28A27
  8
LAYER_1
 10
277.4496571856175251
 20
35.3711604693537325
 30
0.0
 11
278.7666271856173239
 21
35.3711604693537325
 31
0.0
  0
LINE
  5
28A28
  8
LAYER_1
 10
278.7666271856173239
 20
35.3711604693537325
 30
0.0
 11
279.805767185617583
 21
32.6966754693537212
 31
0.0
  0
LINE
  5
28A29
  8
LAYER_1
 10
279.805767185617583
 20
32.6966754693537212
 30
0.0
 11
280.4821621856175966
 21
35.3711604693537325
 31
0.0
  0
LINE
  5
28A2A
  8
LAYER_1
 10
280.4821621856175966
 20
35.3711604693537325
 30
0.0
 11
281.8147921856174776
 21
35.3711604693537325
 31
0.0
  0
LINE
  5
28A2B
  8
LAYER_1
 10
281.8147921856174776
 20
35.3711604693537325
 30
0.0
 11
280.5913321856173184
 21
30.5315004693536309
 31
0.0
  0
LINE
  5
28A2C
  8
LAYER_1
 10
280.5913321856173184
 20
30.5315004693536309
 30
0.0
 11
279.2587021856173806
 21
30.5315004693536309
 31
0.0
  0
LINE
  5
28A2D
  8
LAYER_1
 10
279.2587021856173806
 20
30.5315004693536309
 30
0.0
 11
278.2246471856173002
 21
33.191675469353612
 31
0.0
  0
LINE
  5
28A2E
  8
LAYER_1
 10
278.2246471856173002
 20
33.191675469353612
 30
0.0
 11
277.5527521856179192
 21
30.5315004693536309
 31
0.0
  0
LINE
  5
28A2F
  8
LAYER_1
 10
277.5527521856179192
 20
30.5315004693536309
 30
0.0
 11
276.2263321856174798
 21
30.5315004693536309
 31
0.0
  0
LINE
  5
28A30
  8
LAYER_1
 10
276.2263321856174798
 20
30.5315004693536309
 30
0.0
 11
277.4496571856175251
 21
35.3711604693537325
 31
0.0
  0
LINE
  5
28A31
  8
LAYER_1
 10
282.4293571856172775
 20
35.3711604693537325
 30
0.0
 11
286.2092671856174775
 21
35.3711604693537325
 31
0.0
  0
LINE
  5
28A32
  8
LAYER_1
 10
286.2092671856174775
 20
35.3711604693537325
 30
0.0
 11
285.9480421856173962
 21
34.3381854693536468
 31
0.0
  0
LINE
  5
28A33
  8
LAYER_1
 10
285.9480421856173962
 20
34.3381854693536468
 30
0.0
 11
283.5821221856176066
 21
34.3381854693536468
 31
0.0
  0
LINE
  5
28A34
  8
LAYER_1
 10
283.5821221856176066
 20
34.3381854693536468
 30
0.0
 11
283.3885321856172936
 21
33.5733654693537673
 31
0.0
  0
LINE
  5
28A35
  8
LAYER_1
 10
283.3885321856172936
 20
33.5733654693537673
 30
0.0
 11
285.5863771856178914
 21
33.5733654693537673
 31
0.0
  0
LINE
  5
28A36
  8
LAYER_1
 10
285.5863771856178914
 20
33.5733654693537673
 30
0.0
 11
285.336897185617488
 21
32.5845804693537673
 31
0.0
  0
LINE
  5
28A37
  8
LAYER_1
 10
285.336897185617488
 20
32.5845804693537673
 30
0.0
 11
283.1384671856176283
 21
32.5845804693537673
 31
0.0
  0
LINE
  5
28A38
  8
LAYER_1
 10
283.1384671856176283
 20
32.5845804693537673
 30
0.0
 11
282.8969071856175788
 21
31.628375469353589
 31
0.0
  0
LINE
  5
28A39
  8
LAYER_1
 10
282.8969071856175788
 20
31.628375469353589
 30
0.0
 11
285.3313621856173086
 21
31.628375469353589
 31
0.0
  0
LINE
  5
28A3A
  8
LAYER_1
 10
285.3313621856173086
 20
31.628375469353589
 30
0.0
 11
285.0546121856173158
 21
30.5315004693536309
 31
0.0
  0
LINE
  5
28A3B
  8
LAYER_1
 10
285.0546121856173158
 20
30.5315004693536309
 30
0.0
 11
281.2063021856179148
 21
30.5315004693536309
 31
0.0
  0
LINE
  5
28A3C
  8
LAYER_1
 10
281.2063021856179148
 20
30.5315004693536309
 30
0.0
 11
282.4293571856172775
 21
35.3711604693537325
 31
0.0
  0
LINE
  5
28A49
  8
寸法
 62
     2
 10
210.2801465303350028
 20
118.1985059208891045
 30
0.0
 11
205.3649715597811962
 21
118.1985059208891045
 31
0.0
  0
LINE
  5
28A4A
  8
寸法
 62
     2
 10
210.2801465303350028
 20
94.1985059208890618
 30
0.0
 11
205.3649715597811962
 21
94.1985059208890618
 31
0.0
  0
LINE
  5
28A4B
  8
寸法
 62
     2
 10
205.3649715597811962
 20
117.7985059208890988
 30
0.0
 11
205.3649715597811962
 21
94.5985059208890675
 31
0.0
  0
LINE
  5
28A4F
  8
寸法
 62
     2
 10
210.2801465303350028
 20
94.1985059208890618
 30
0.0
 11
205.364971559781111
 21
94.1985059208890618
 31
0.0
  0
LINE
  5
28A50
  8
寸法
 62
     2
 10
210.2801465303350028
 20
87.5318392542224046
 30
0.0
 11
205.364971559781111
 21
87.5318392542224046
 31
0.0
  0
LINE
  5
28A51
  8
寸法
 62
     2
 10
205.364971559781111
 20
93.7985059208890561
 30
0.0
 11
205.364971559781111
 21
87.9318392542224103
 31
0.0
  0
LINE
  5
28A55
  8
寸法
 62
     2
 10
210.2801465303350028
 20
87.5318392542224046
 30
0.0
 11
205.3649715597813099
 21
87.5318392542224046
 31
0.0
  0
LINE
  5
28A56
  8
寸法
 62
     2
 10
210.2801465303350028
 20
63.5318392542223975
 30
0.0
 11
205.3649715597813099
 21
63.5318392542223904
 31
0.0
  0
LINE
  5
28A57
  8
寸法
 62
     2
 10
205.3649715597813099
 20
87.1318392542223989
 30
0.0
 11
205.3649715597813099
 21
63.931839254222389
 31
0.0
  0
LINE
  5
28A5B
  8
寸法
 62
     2
 10
210.2801465303350028
 20
63.5318392542223975
 30
0.0
 11
205.364971559781111
 21
63.5318392542223904
 31
0.0
  0
LINE
  5
28A5C
  8
寸法
 62
     2
 10
210.2801465303350028
 20
56.8651725875557474
 30
0.0
 11
205.364971559781111
 21
56.8651725875557403
 31
0.0
  0
LINE
  5
28A5D
  8
寸法
 62
     2
 10
205.364971559781111
 20
63.1318392542223989
 30
0.0
 11
205.364971559781111
 21
57.2651725875557389
 31
0.0
  0
LINE
  5
28A61
  8
寸法
 62
     2
 10
218.2801465303348891
 20
192.198505920889005
 30
0.0
 11
218.2801465303348891
 21
200.627443631699407
 31
0.0
  0
LINE
  5
28A62
  8
寸法
 62
     2
 10
212.2801465303348891
 20
192.198505920889005
 30
0.0
 11
212.2801465303348891
 21
200.627443631699407
 31
0.0
  0
LINE
  5
28A63
  8
寸法
 62
     2
 10
217.8801465303349119
 20
200.627443631699407
 30
0.0
 11
212.6801465303348948
 21
200.627443631699407
 31
0.0
  0
LINE
  5
28A67
  8
寸法
 62
     2
 10
210.2801465303350028
 20
190.1985059208890902
 30
0.0
 11
194.1231361022286137
 21
190.1985059208890902
 31
0.0
  0
LINE
  5
28A68
  8
寸法
 62
     2
 10
210.2801465303350028
 20
56.8651725875557474
 30
0.0
 11
194.1231361022286137
 21
56.8651725875557403
 31
0.0
  0
LINE
  5
28A69
  8
寸法
 62
     2
 10
194.1231361022286137
 20
189.798505920889113
 30
0.0
 11
194.1231361022286137
 21
57.2651725875557389
 31
0.0
  0
LINE
  5
28A6F
  8
寸法
 62
     2
 10
229.4269013079922956
 20
146.8651738047587116
 30
0.0
 11
233.1077509830051895
 21
146.8651738047587116
 31
0.0
  0
LINE
  5
28A70
  8
寸法
 62
     2
 10
229.4269013079922956
 20
190.1985071380921113
 30
0.0
 11
233.1077509830051895
 21
190.1985071380921113
 31
0.0
  0
LINE
  5
28A71
  8
寸法
 62
     2
 10
233.1077509830051895
 20
147.2651738047588026
 30
0.0
 11
233.1077509830051895
 21
189.7985071380921056
 31
0.0
  0
LINE
  5
28A75
  8
寸法
 62
     2
 10
230.1244615453464064
 20
76.865182337555666
 30
0.0
 11
233.1077509830055021
 21
76.865182337555666
 31
0.0
  0
LINE
  5
28A76
  8
寸法
 62
     2
 10
230.1244615453464064
 20
56.8651823375556731
 30
0.0
 11
233.1077509830055021
 21
56.8651823375556731
 31
0.0
  0
LINE
  5
28A77
  8
寸法
 62
     2
 10
233.1077509830055021
 20
76.4651823375556603
 30
0.0
 11
233.1077509830055021
 21
57.2651823375556575
 31
0.0
  0
LINE
  5
28A7B
  8
寸法
 62
     2
 10
235.1077509830041095
 20
146.8651738047587969
 30
0.0
 11
233.1077509830057863
 21
146.8651738047587969
 31
0.0
  0
LINE
  5
28A7C
  8
寸法
 62
     2
 10
235.1077509830043937
 20
76.8651823375556944
 30
0.0
 11
233.1077509830057863
 21
76.8651823375556944
 31
0.0
  0
LINE
  5
28A7D
  8
寸法
 62
     2
 10
233.1077509830057863
 20
146.4651738047587912
 30
0.0
 11
233.1077509830057863
 21
77.2651823375557001
 31
0.0
  0
LINE
  5
28A82
  8
注釈
  6
BYBLOCK
 10
240.7585536126672139
 20
110.2662355311452984
 30
0.0
 11
241.1185536126671991
 21
110.2662355311452984
 31
0.0
  0
LINE
  5
28A86
  8
寸法
 62
     2
 10
210.2801465303350028
 20
124.8651725875558043
 30
0.0
 11
205.3649715597815941
 21
124.8651725875558043
 31
0.0
  0
LINE
  5
28A87
  8
寸法
 62
     2
 10
210.2801465303350028
 20
118.1985059208891045
 30
0.0
 11
205.3649715597815941
 21
118.1985059208891045
 31
0.0
  0
LINE
  5
28A88
  8
寸法
 62
     2
 10
205.3649715597815941
 20
124.4651725875557986
 30
0.0
 11
205.3649715597815941
 21
118.5985059208890959
 31
0.0
  0
LINE
  5
28A8C
  8
注釈
 62
     2
 10
210.2801465303350028
 20
190.1985059208890902
 30
0.0
 11
205.3649715597817931
 21
190.1985059208890902
 31
0.0
  0
LINE
  5
28A8D
  8
注釈
 62
     2
 10
210.2801465303350028
 20
143.5318392542224046
 30
0.0
 11
205.3649715597817931
 21
143.5318392542224046
 31
0.0
  0
LINE
  5
28A8E
  8
注釈
 62
     2
 10
205.3649715597817931
 20
189.798505920889113
 30
0.0
 11
205.3649715597817931
 21
143.9318392542224103
 31
0.0
  0
LINE
  5
28A94
  8
寸法
 62
     2
 10
73.5924657950996277
 20
145.5424333611267969
 30
0.0
 11
63.6690835383011375
 21
145.5424333611267969
 31
0.0
  0
LINE
  5
28A95
  8
寸法
 62
     2
 10
73.5924657950996277
 20
85.5424333611268253
 30
0.0
 11
63.6690835383011517
 21
85.5424333611268253
 31
0.0
  0
LINE
  5
28A96
  8
寸法
 62
     2
 10
63.6690835383011375
 20
145.1424333611267912
 30
0.0
 11
63.6690835383011517
 21
85.9424333611268452
 31
0.0
  0
LINE
  5
28A9A
  8
寸法
 62
     2
 10
73.5924657950996277
 20
145.5424333611267969
 30
0.0
 11
70.076507432257273
 21
145.5424333611267969
 31
0.0
  0
LINE
  5
28A9B
  8
寸法
 62
     2
 10
73.5924657950996277
 20
131.5424333611267969
 30
0.0
 11
70.076507432257273
 21
131.5424333611267969
 31
0.0
  0
LINE
  5
28A9C
  8
寸法
 62
     2
 10
70.076507432257273
 20
145.1424333611267912
 30
0.0
 11
70.076507432257273
 21
131.9424333611268025
 31
0.0
  0
LINE
  5
28AA0
  8
寸法
 62
     2
 10
73.5924657950996277
 20
131.5424333611267969
 30
0.0
 11
70.0765074322573156
 21
131.5424333611267969
 31
0.0
  0
LINE
  5
28AA1
  8
寸法
 62
     2
 10
73.5924657950996277
 20
124.342433361126794
 30
0.0
 11
70.0765074322573156
 21
124.342433361126794
 31
0.0
  0
LINE
  5
28AA2
  8
寸法
 62
     2
 10
70.0765074322573156
 20
131.1424333611267912
 30
0.0
 11
70.0765074322573156
 21
124.7424333611267997
 31
0.0
  0
LINE
  5
28AA6
  8
寸法
 62
     2
 10
73.5924657950996277
 20
124.342433361126794
 30
0.0
 11
70.0765074322573156
 21
124.342433361126794
 31
0.0
  0
LINE
  5
28AA7
  8
寸法
 62
     2
 10
73.5924657950996277
 20
122.342433361126794
 30
0.0
 11
70.0765074322573156
 21
122.342433361126794
 31
0.0
  0
LINE
  5
28AA8
  8
寸法
 62
     2
 10
70.0765074322573156
 20
124.7424333611267997
 30
0.0
 11
70.0765074322573156
 21
125.1424333611268054
 31
0.0
  0
LINE
  5
28AA9
  8
寸法
 62
     2
 10
70.0765074322573156
 20
121.9424333611268025
 30
0.0
 11
70.0765074322573156
 21
121.5424333611267969
 31
0.0
  0
LINE
  5
28AAD
  8
寸法
 62
     2
 10
73.5924657950996277
 20
103.942433361126902
 30
0.0
 11
70.0765074322574293
 21
103.942433361126902
 31
0.0
  0
LINE
  5
28AAE
  8
寸法
 62
     2
 10
73.5924657950996277
 20
96.7424333611268992
 30
0.0
 11
70.0765074322574293
 21
96.7424333611268992
 31
0.0
  0
LINE
  5
28AAF
  8
寸法
 62
     2
 10
70.0765074322574293
 20
103.5424333611267969
 30
0.0
 11
70.0765074322574293
 21
97.1424333611269049
 31
0.0
  0
LINE
  5
28AB3
  8
寸法
 62
     2
 10
73.5924657950996277
 20
96.7424333611268992
 30
0.0
 11
70.0765074322573298
 21
96.7424333611268992
 31
0.0
  0
LINE
  5
28AB4
  8
寸法
 62
     2
 10
73.5924657950996277
 20
94.7424333611268708
 30
0.0
 11
70.076507432257344
 21
94.7424333611268708
 31
0.0
  0
LINE
  5
28AB5
  8
寸法
 62
     2
 10
70.0765074322573298
 20
97.1424333611269049
 30
0.0
 11
70.0765074322573298
 21
97.5424333611268963
 31
0.0
  0
LINE
  5
28AB6
  8
寸法
 62
     2
 10
70.076507432257344
 20
94.3424333611268651
 30
0.0
 11
70.076507432257344
 21
93.9424333611268736
 31
0.0
  0
LINE
  5
28ABA
  8
寸法
 62
     2
 10
73.5924657950996277
 20
94.7424333611268281
 30
0.0
 11
70.0765074322573724
 21
94.7424333611268281
 31
0.0
  0
LINE
  5
28ABB
  8
寸法
 62
     2
 10
73.5924657950996277
 20
87.5424333611268537
 30
0.0
 11
70.0765074322573724
 21
87.5424333611268537
 31
0.0
  0
LINE
  5
28ABC
  8
寸法
 62
     2
 10
70.0765074322573724
 20
94.3424333611268366
 30
0.0
 11
70.0765074322573724
 21
87.9424333611268452
 31
0.0
  0
LINE
  5
28AC0
  8
寸法
 62
     2
 10
73.5924657950996277
 20
87.5424333611268537
 30
0.0
 11
70.0765074322574009
 21
87.5424333611268537
 31
0.0
  0
LINE
  5
28AC1
  8
寸法
 62
     2
 10
73.5924657950996277
 20
85.5424333611268537
 30
0.0
 11
70.0765074322574009
 21
85.5424333611268537
 31
0.0
  0
LINE
  5
28AC2
  8
寸法
 62
     2
 10
70.0765074322574009
 20
87.9424333611268452
 30
0.0
 11
70.0765074322574009
 21
88.3424333611268509
 31
0.0
  0
LINE
  5
28AC3
  8
寸法
 62
     2
 10
70.0765074322574009
 20
85.1424333611268338
 30
0.0
 11
70.0765074322574009
 21
84.7424333611268565
 31
0.0
  0
LINE
  5
28AC7
  8
寸法
 62
     2
 10
73.5924657950996277
 20
122.3424333611268935
 30
0.0
 11
70.0765074322574861
 21
122.3424333611268935
 31
0.0
  0
LINE
  5
28AC8
  8
寸法
 62
     2
 10
73.5924657950996277
 20
115.1424333611269049
 30
0.0
 11
70.0765074322574861
 21
115.1424333611269049
 31
0.0
  0
LINE
  5
28AC9
  8
寸法
 62
     2
 10
70.0765074322574861
 20
121.942433361126902
 30
0.0
 11
70.0765074322574861
 21
115.5424333611268963
 31
0.0
  0
LINE
  5
28ACD
  8
寸法
 62
     2
 10
73.5924657950996277
 20
115.1424333611269049
 30
0.0
 11
70.0765074322573298
 21
115.1424333611269049
 31
0.0
  0
LINE
  5
28ACE
  8
寸法
 62
     2
 10
73.5924657950996277
 20
113.1424333611269049
 30
0.0
 11
70.0765074322573298
 21
113.1424333611269049
 31
0.0
  0
LINE
  5
28ACF
  8
寸法
 62
     2
 10
70.0765074322573298
 20
115.5424333611268963
 30
0.0
 11
70.0765074322573298
 21
115.942433361126902
 31
0.0
  0
LINE
  5
28AD0
  8
寸法
 62
     2
 10
70.0765074322573298
 20
112.7424333611268992
 30
0.0
 11
70.0765074322573298
 21
112.3424333611268935
 31
0.0
  0
LINE
  5
28AD4
  8
寸法
 62
     2
 10
73.5924657950996277
 20
113.1424333611269049
 30
0.0
 11
70.0765074322574293
 21
113.1424333611269049
 31
0.0
  0
LINE
  5
28AD5
  8
寸法
 62
     2
 10
73.5924657950996277
 20
105.942433361126902
 30
0.0
 11
70.0765074322574293
 21
105.942433361126902
 31
0.0
  0
LINE
  5
28AD6
  8
寸法
 62
     2
 10
70.0765074322574293
 20
112.7424333611268992
 30
0.0
 11
70.0765074322574293
 21
106.3424333611268935
 31
0.0
  0
LINE
  5
28ADA
  8
寸法
 62
     2
 10
73.5924657950996277
 20
105.942433361126902
 30
0.0
 11
70.0765074322573867
 21
105.942433361126902
 31
0.0
  0
LINE
  5
28ADB
  8
寸法
 62
     2
 10
73.5924657950996277
 20
103.942433361126902
 30
0.0
 11
70.0765074322573867
 21
103.942433361126902
 31
0.0
  0
LINE
  5
28ADC
  8
寸法
 62
     2
 10
70.0765074322573867
 20
106.3424333611268935
 30
0.0
 11
70.0765074322573867
 21
106.7424333611268992
 31
0.0
  0
LINE
  5
28ADD
  8
寸法
 62
     2
 10
70.0765074322573867
 20
103.5424333611267969
 30
0.0
 11
70.0765074322573867
 21
103.1424333611269049
 31
0.0
  0
LINE
  5
28AE1
  8
寸法
 62
     2
 10
75.5924657950995851
 20
83.1388763363145529
 30
0.0
 11
75.5924657950995851
 21
80.7671871294503489
 31
0.0
  0
LINE
  5
28AE2
  8
寸法
 62
     2
 10
82.7924657950996448
 20
83.1388763363145529
 30
0.0
 11
82.7924657950996448
 21
80.7671871294503489
 31
0.0
  0
LINE
  5
28AE3
  8
寸法
 62
     2
 10
75.992465795099605
 20
80.7671871294503489
 30
0.0
 11
82.3924657950996391
 21
80.7671871294503489
 31
0.0
  0
LINE
  5
28AE7
  8
寸法
 62
     2
 10
82.7924657950996448
 20
83.1388763363145529
 30
0.0
 11
82.7924657950996448
 21
80.7671871294503489
 31
0.0
  0
LINE
  5
28AE8
  8
寸法
 62
     2
 10
99.192465795099622
 20
83.1388763363145529
 30
0.0
 11
99.192465795099622
 21
80.7671871294503489
 31
0.0
  0
LINE
  5
28AE9
  8
寸法
 62
     2
 10
83.1924657950996504
 20
80.7671871294503489
 30
0.0
 11
98.7924657950996163
 21
80.7671871294503489
 31
0.0
  0
LINE
  5
28AED
  8
寸法
 62
     2
 10
99.192465795099622
 20
83.1388763363145529
 30
0.0
 11
99.192465795099622
 21
80.7671871294503489
 31
0.0
  0
LINE
  5
28AEE
  8
寸法
 62
     2
 10
115.5924657950995993
 20
83.1388763363145529
 30
0.0
 11
115.5924657950995993
 21
80.7671871294503489
 31
0.0
  0
LINE
  5
28AEF
  8
寸法
 62
     2
 10
99.5924657950996277
 20
80.7671871294503489
 30
0.0
 11
115.1924657950995936
 21
80.7671871294503489
 31
0.0
  0
LINE
  5
28AF3
  8
寸法
 62
     2
 10
75.5924657950995851
 20
83.5424333611267969
 30
0.0
 11
75.5924657950995851
 21
76.1835706761560232
 31
0.0
  0
LINE
  5
28AF4
  8
寸法
 62
     2
 10
115.5924657950995993
 20
83.5424333611267969
 30
0.0
 11
115.5924657950995993
 21
76.1835706761560232
 31
0.0
  0
LINE
  5
28AF5
  8
寸法
 62
     2
 10
75.992465795099605
 20
76.1835706761560232
 30
0.0
 11
115.1924657950995936
 21
76.1835706761560232
 31
0.0
  0
POLYLINE
  5
28AF9
  8
0
  6
BYBLOCK
 62
     0
 66
     1
 10
0.0
 20
0.0
 30
0.0
 70
     1
 40
0.4000000000000002
 41
0.4000000000000002
  0
VERTEX
  5
28C65
  8
0
  6
BYBLOCK
 62
     0
 10
81.7772777927695387
 20
136.1586456277474895
 30
0.0
 42
1.0
  0
VERTEX
  5
28C66
  8
0
  6
BYBLOCK
 62
     0
 10
81.5819224185669896
 20
135.8095950901885942
 30
0.0
 42
1.0
  0
SEQEND
  5
28C67
  8
0
  6
BYBLOCK
 62
     0
  0
LINE
  5
28AFA
  8
0
  6
BYBLOCK
 62
     0
 10
81.8749554798708061
 20
136.3331708965270082
 30
0.0
 11
82.0703108540733837
 21
136.6822214340859887
 31
0.0
  0
LINE
  5
28AFB
  8
注釈
 10
82.0703108540733837
 20
136.6822214340859887
 30
0.0
 11
96.8641168626451758
 21
163.115003029746191
 31
0.0
1001
ACAD
1000
DSTYLE
1002
{
1070
   147
1040
0.09
1070
    41
1040
0.8
1070
    42
1040
2.0
1070
    43
1040
0.35
1070
    44
1040
0.0
1070
    73
1070
     0
1070
    74
1070
     0
1070
    77
1070
     0
1070
    78
1070
     8
1070
   140
1040
2.399999999999999
1070
   144
1040
2.0
1070
   176
1070
     2
1070
   177
1070
     2
1070
   178
1070
     2
1070
   271
1070
     1
1070
   272
1070
     1
1070
   340
1005
2278D
1070
   341
1005
36B9
1070
   342
1005
36B9
1070
   371
1070
    -1
1070
   372
1070
    -1
1002
}
  0
POLYLINE
  5
28AFC
  8
0
  6
BYBLOCK
 62
     0
 66
     1
 10
0.0
 20
0.0
 30
0.0
 70
     1
 40
0.4
 41
0.4
  0
VERTEX
  5
28C68
  8
0
  6
BYBLOCK
 62
     0
 10
107.0776577462315942
 20
109.441287868439403
 30
0.0
 42
1.0
  0
VERTEX
  5
28C69
  8
0
  6
BYBLOCK
 62
     0
 10
106.8927032569689004
 20
109.0866164192055976
 30
0.0
 42
1.0
  0
SEQEND
  5
28C6A
  8
0
  6
BYBLOCK
 62
     0
  0
LINE
  5
28AFD
  8
0
  6
BYBLOCK
 62
     0
 10
107.1701349908629055
 20
109.6186235930562987
 30
0.0
 11
107.3550894801254998
 21
109.9732950422901041
 31
0.0
  0
LINE
  5
28AFE
  8
注釈
 10
107.3550894801254998
 20
109.9732950422901041
 30
0.0
 11
124.7153091547167065
 21
143.2635076537926864
 31
0.0
1001
ACAD
1000
DSTYLE
1002
{
1070
   147
1040
0.09
1070
    41
1040
0.8
1070
    42
1040
2.0
1070
    43
1040
0.35
1070
    44
1040
0.0
1070
    73
1070
     0
1070
    74
1070
     0
1070
    77
1070
     0
1070
    78
1070
     8
1070
   140
1040
2.399999999999999
1070
   144
1040
2.0
1070
   176
1070
     2
1070
   177
1070
     2
1070
   178
1070
     2
1070
   271
1070
     1
1070
   272
1070
     1
1070
   340
1005
2278D
1070
   341
1005
36B9
1070
   342
1005
36B9
1070
   371
1070
    -1
1070
   372
1070
    -1
1002
}
  0
POLYLINE
  5
28AFF
  8
0
  6
BYBLOCK
 62
     0
 66
     1
 10
0.0
 20
0.0
 30
0.0
 70
     1
 40
0.4
 41
0.4
  0
VERTEX
  5
28C6B
  8
0
  6
BYBLOCK
 62
     0
 10
213.072659881895504
 20
98.2443534748464771
 30
0.0
 42
1.0
  0
VERTEX
  5
28C6C
  8
0
  6
BYBLOCK
 62
     0
 10
212.8209665121075886
 20
97.9334669238269413
 30
0.0
 42
1.0
  0
SEQEND
  5
28C6D
  8
0
  6
BYBLOCK
 62
     0
  0
LINE
  5
28B00
  8
0
  6
BYBLOCK
 62
     0
 10
213.1985065667894048
 20
98.399796750356245
 30
0.0
 11
213.4501999365772917
 21
98.7106833013757807
 31
0.0
  0
LINE
  5
28B01
  8
注釈
 10
213.4501999365772917
 20
98.7106833013757807
 30
0.0
 11
240.4728115865272002
 21
132.0884657295482043
 31
0.0
1001
ACAD
1000
DSTYLE
1002
{
1070
   147
1040
0.09
1070
    41
1040
0.8
1070
    42
1040
2.0
1070
    43
1040
0.35
1070
    44
1040
0.0
1070
    73
1070
     0
1070
    74
1070
     0
1070
    77
1070
     0
1070
    78
1070
     8
1070
   140
1040
2.399999999999999
1070
   144
1040
2.0
1070
   176
1070
     2
1070
   177
1070
     2
1070
   178
1070
     2
1070
   271
1070
     1
1070
   272
1070
     1
1070
   340
1005
2278D
1070
   341
1005
36B9
1070
   342
1005
36B9
1070
   371
1070
    -1
1070
   372
1070
    -1
1002
}
  0
POLYLINE
  5
28B02
  8
0
  6
BYBLOCK
 62
     0
 66
     1
 10
0.0
 20
0.0
 30
0.0
 70
     1
 40
0.4000000000000002
 41
0.4000000000000002
  0
VERTEX
  5
28C6E
  8
0
  6
BYBLOCK
 62
     0
 10
215.4821598922902979
 20
168.8836047218152885
 30
0.0
 42
1.0
  0
VERTEX
  5
28C6F
  8
0
  6
BYBLOCK
 62
     0
 10
215.2868045180877061
 20
168.5345541842563932
 30
0.0
 42
1.0
  0
SEQEND
  5
28C70
  8
0
  6
BYBLOCK
 62
     0
  0
LINE
  5
28B03
  8
0
  6
BYBLOCK
 62
     0
 10
215.579837579391608
 20
169.0581299905946935
 30
0.0
 11
215.775192953594086
 21
169.4071805281537024
 31
0.0
  0
LINE
  5
28B04
  8
注釈
 10
215.775192953594086
 20
169.4071805281537024
 30
0.0
 11
230.5689989621658924
 21
195.8399621238139048
 31
0.0
1001
ACAD
1000
DSTYLE
1002
{
1070
   147
1040
0.09
1070
    41
1040
0.8
1070
    42
1040
2.0
1070
    43
1040
0.35
1070
    44
1040
0.0
1070
    73
1070
     0
1070
    74
1070
     0
1070
    77
1070
     0
1070
    78
1070
     8
1070
   140
1040
2.399999999999999
1070
   144
1040
2.0
1070
   176
1070
     2
1070
   177
1070
     2
1070
   178
1070
     2
1070
   271
1070
     1
1070
   272
1070
     1
1070
   340
1005
2278D
1070
   341
1005
36B9
1070
   342
1005
36B9
1070
   371
1070
    -1
1070
   372
1070
    -1
1002
}
  0
POLYLINE
  5
28B05
  8
0
  6
BYBLOCK
 62
     0
 66
     1
 10
0.0
 20
0.0
 30
0.0
 70
     1
 40
0.4000000000000001
 41
0.4000000000000001
  0
VERTEX
  5
28C71
  8
0
  6
BYBLOCK
 62
     0
 10
213.6059932152288923
 20
112.0206158630655011
 30
0.0
 42
1.0
  0
VERTEX
  5
28C72
  8
0
  6
BYBLOCK
 62
     0
 10
213.3542998454410053
 20
111.7097293120458943
 30
0.0
 42
1.0
  0
SEQEND
  5
28C73
  8
0
  6
BYBLOCK
 62
     0
  0
LINE
  5
28B06
  8
0
  6
BYBLOCK
 62
     0
 10
213.7318399001227931
 20
112.1760591385751979
 30
0.0
 11
213.9835332699107084
 21
112.4869456895948048
 31
0.0
  0
LINE
  5
28B07
  8
注釈
 10
213.9835332699107084
 20
112.4869456895948048
 30
0.0
 11
241.0061449198605885
 21
145.8647281177672141
 31
0.0
1001
ACAD
1000
DSTYLE
1002
{
1070
   147
1040
0.09
1070
    41
1040
0.8
1070
    42
1040
2.0
1070
    43
1040
0.35
1070
    44
1040
0.0
1070
    73
1070
     0
1070
    74
1070
     0
1070
    77
1070
     0
1070
    78
1070
     8
1070
   140
1040
2.399999999999999
1070
   144
1040
2.0
1070
   176
1070
     2
1070
   177
1070
     2
1070
   178
1070
     2
1070
   271
1070
     1
1070
   272
1070
     1
1070
   340
1005
2278D
1070
   341
1005
36B9
1070
   342
1005
36B9
1070
   371
1070
    -1
1070
   372
1070
    -1
1002
}
  0
POLYLINE
  5
28B08
  8
0
  6
BYBLOCK
 62
     0
 66
     1
 10
0.0
 20
0.0
 30
0.0
 70
     1
 40
0.4000000000000001
 41
0.4000000000000001
  0
VERTEX
  5
28C74
  8
0
  6
BYBLOCK
 62
     0
 10
213.6059932152288923
 20
128.6872825297321015
 30
0.0
 42
1.0
  0
VERTEX
  5
28C75
  8
0
  6
BYBLOCK
 62
     0
 10
213.3542998454410053
 20
128.3763959787125941
 30
0.0
 42
1.0
  0
SEQEND
  5
28C76
  8
0
  6
BYBLOCK
 62
     0
  0
LINE
  5
28B09
  8
0
  6
BYBLOCK
 62
     0
 10
213.7318399001227931
 20
128.842725805241912
 30
0.0
 11
213.9835332699107084
 21
129.1536123562613909
 31
0.0
  0
LINE
  5
28B0A
  8
注釈
 10
213.9835332699107084
 20
129.1536123562613909
 30
0.0
 11
241.0061449198605885
 21
162.5313947844338998
 31
0.0
1001
ACAD
1000
DSTYLE
1002
{
1070
   147
1040
0.09
1070
    41
1040
0.8
1070
    42
1040
2.0
1070
    43
1040
0.35
1070
    44
1040
0.0
1070
    73
1070
     0
1070
    74
1070
     0
1070
    77
1070
     0
1070
    78
1070
     8
1070
   140
1040
2.399999999999999
1070
   144
1040
2.0
1070
   176
1070
     2
1070
   177
1070
     2
1070
   178
1070
     2
1070
   271
1070
     1
1070
   272
1070
     1
1070
   340
1005
2278D
1070
   341
1005
36B9
1070
   342
1005
36B9
1070
   371
1070
    -1
1070
   372
1070
    -1
1002
}
  0
POLYLINE
  5
28B0B
  8
0
  6
BYBLOCK
 62
     0
 66
     1
 10
0.0
 20
0.0
 30
0.0
 70
     1
 40
0.2000000000000001
 41
0.2000000000000001
  0
VERTEX
  5
28C77
  8
0
  6
BYBLOCK
 62
     0
 10
205.3649715597811962
 20
118.0985059208890959
 30
0.0
 42
1.0
  0
VERTEX
  5
28C78
  8
0
  6
BYBLOCK
 62
     0
 10
205.3649715597811962
 20
118.2985059208890988
 30
0.0
 42
1.0
  0
SEQEND
  5
28C79
  8
0
  6
BYBLOCK
 62
     0
  0
LINE
  5
28B0C
  8
0
  6
BYBLOCK
 62
     0
 10
205.3649715597811962
 20
117.9985059208891016
 30
0.0
 11
205.3649715597811962
 21
117.7985059208890988
 31
0.0
  0
POLYLINE
  5
28B0D
  8
0
  6
BYBLOCK
 62
     0
 66
     1
 10
0.0
 20
0.0
 30
0.0
 70
     1
 40
0.2
 41
0.2
  0
VERTEX
  5
28C7A
  8
0
  6
BYBLOCK
 62
     0
 10
205.3649715597811962
 20
94.2985059208890561
 30
0.0
 42
1.0
  0
VERTEX
  5
28C7B
  8
0
  6
BYBLOCK
 62
     0
 10
205.3649715597811962
 20
94.0985059208890533
 30
0.0
 42
1.0
  0
SEQEND
  5
28C7C
  8
0
  6
BYBLOCK
 62
     0
  0
LINE
  5
28B0E
  8
0
  6
BYBLOCK
 62
     0
 10
205.3649715597811962
 20
94.3985059208890647
 30
0.0
 11
205.3649715597811962
 21
94.5985059208890675
 31
0.0
  0
TEXT
  5
28B0F
  8
寸法
 62
     2
 10
204.7399715597811962
 20
104.198505920889005
 30
0.0
 40
2.399999999999999
  1
72
 50
90.0
  0
POLYLINE
  5
28B10
  8
0
  6
BYBLOCK
 62
     0
 66
     1
 10
0.0
 20
0.0
 30
0.0
 70
     1
 40
0.2000000000000001
 41
0.2000000000000001
  0
VERTEX
  5
28C7D
  8
0
  6
BYBLOCK
 62
     0
 10
205.364971559781111
 20
94.0985059208890533
 30
0.0
 42
1.0
  0
VERTEX
  5
28C7E
  8
0
  6
BYBLOCK
 62
     0
 10
205.364971559781111
 20
94.2985059208890561
 30
0.0
 42
1.0
  0
SEQEND
  5
28C7F
  8
0
  6
BYBLOCK
 62
     0
  0
LINE
  5
28B11
  8
0
  6
BYBLOCK
 62
     0
 10
205.364971559781111
 20
93.998505920889059
 30
0.0
 11
205.364971559781111
 21
93.7985059208890561
 31
0.0
  0
POLYLINE
  5
28B12
  8
0
  6
BYBLOCK
 62
     0
 66
     1
 10
0.0
 20
0.0
 30
0.0
 70
     1
 40
0.2
 41
0.2
  0
VERTEX
  5
28C80
  8
0
  6
BYBLOCK
 62
     0
 10
205.364971559781111
 20
87.6318392542223847
 30
0.0
 42
1.0
  0
VERTEX
  5
28C81
  8
0
  6
BYBLOCK
 62
     0
 10
205.364971559781111
 20
87.4318392542224245
 30
0.0
 42
1.0
  0
SEQEND
  5
28C82
  8
0
  6
BYBLOCK
 62
     0
  0
LINE
  5
28B13
  8
0
  6
BYBLOCK
 62
     0
 10
205.364971559781111
 20
87.7318392542224075
 30
0.0
 11
205.364971559781111
 21
87.9318392542224103
 31
0.0
  0
TEXT
  5
28B14
  8
寸法
 62
     2
 10
204.739971559781111
 20
89.065172587555665
 30
0.0
 40
2.399999999999999
  1
20
 50
90.0
  0
POLYLINE
  5
28B15
  8
0
  6
BYBLOCK
 62
     0
 66
     1
 10
0.0
 20
0.0
 30
0.0
 70
     1
 40
0.2000000000000001
 41
0.2000000000000001
  0
VERTEX
  5
28C83
  8
0
  6
BYBLOCK
 62
     0
 10
205.3649715597813099
 20
87.4318392542224245
 30
0.0
 42
1.0
  0
VERTEX
  5
28C84
  8
0
  6
BYBLOCK
 62
     0
 10
205.3649715597813099
 20
87.6318392542223847
 30
0.0
 42
1.0
  0
SEQEND
  5
28C85
  8
0
  6
BYBLOCK
 62
     0
  0
LINE
  5
28B16
  8
0
  6
BYBLOCK
 62
     0
 10
205.3649715597813099
 20
87.3318392542224018
 30
0.0
 11
205.3649715597813099
 21
87.1318392542223989
 31
0.0
  0
POLYLINE
  5
28B17
  8
0
  6
BYBLOCK
 62
     0
 66
     1
 10
0.0
 20
0.0
 30
0.0
 70
     1
 40
0.2
 41
0.2
  0
VERTEX
  5
28C86
  8
0
  6
BYBLOCK
 62
     0
 10
205.3649715597813099
 20
63.6318392542223989
 30
0.0
 42
1.0
  0
VERTEX
  5
28C87
  8
0
  6
BYBLOCK
 62
     0
 10
205.3649715597813099
 20
63.431839254222389
 30
0.0
 42
1.0
  0
SEQEND
  5
28C88
  8
0
  6
BYBLOCK
 62
     0
  0
LINE
  5
28B18
  8
0
  6
BYBLOCK
 62
     0
 10
205.3649715597813099
 20
63.7318392542224004
 30
0.0
 11
205.3649715597813099
 21
63.931839254222389
 31
0.0
  0
TEXT
  5
28B19
  8
寸法
 62
     2
 10
204.7399715597811962
 20
73.5318392542223336
 30
0.0
 40
2.399999999999999
  1
72
 50
90.0
  0
POLYLINE
  5
28B1A
  8
0
  6
BYBLOCK
 62
     0
 66
     1
 10
0.0
 20
0.0
 30
0.0
 70
     1
 40
0.2000000000000001
 41
0.2000000000000001
  0
VERTEX
  5
28C89
  8
0
  6
BYBLOCK
 62
     0
 10
205.364971559781111
 20
63.431839254222389
 30
0.0
 42
1.0
  0
VERTEX
  5
28C8A
  8
0
  6
BYBLOCK
 62
     0
 10
205.364971559781111
 20
63.6318392542223989
 30
0.0
 42
1.0
  0
SEQEND
  5
28C8B
  8
0
  6
BYBLOCK
 62
     0
  0
LINE
  5
28B1B
  8
0
  6
BYBLOCK
 62
     0
 10
205.364971559781111
 20
63.3318392542224018
 30
0.0
 11
205.364971559781111
 21
63.1318392542223989
 31
0.0
  0
POLYLINE
  5
28B1C
  8
0
  6
BYBLOCK
 62
     0
 66
     1
 10
0.0
 20
0.0
 30
0.0
 70
     1
 40
0.2
 41
0.2
  0
VERTEX
  5
28C8C
  8
0
  6
BYBLOCK
 62
     0
 10
205.364971559781111
 20
56.9651725875557418
 30
0.0
 42
1.0
  0
VERTEX
  5
28C8D
  8
0
  6
BYBLOCK
 62
     0
 10
205.364971559781111
 20
56.7651725875557318
 30
0.0
 42
1.0
  0
SEQEND
  5
28C8E
  8
0
  6
BYBLOCK
 62
     0
  0
LINE
  5
28B1D
  8
0
  6
BYBLOCK
 62
     0
 10
205.364971559781111
 20
57.0651725875557503
 30
0.0
 11
205.364971559781111
 21
57.2651725875557389
 31
0.0
  0
TEXT
  5
28B1E
  8
寸法
 62
     2
 10
204.739971559781111
 20
58.3985059208890007
 30
0.0
 40
2.399999999999999
  1
20
 50
90.0
  0
POLYLINE
  5
28B1F
  8
0
  6
BYBLOCK
 62
     0
 66
     1
 10
0.0
 20
0.0
 30
0.0
 70
     1
 40
0.2
 41
0.2
  0
VERTEX
  5
28C8F
  8
0
  6
BYBLOCK
 62
     0
 10
218.1801465303348948
 20
200.627443631699407
 30
0.0
 42
1.0
  0
VERTEX
  5
28C90
  8
0
  6
BYBLOCK
 62
     0
 10
218.3801465303349119
 20
200.627443631699407
 30
0.0
 42
1.0
  0
SEQEND
  5
28C91
  8
0
  6
BYBLOCK
 62
     0
  0
LINE
  5
28B20
  8
0
  6
BYBLOCK
 62
     0
 10
218.0801465303349005
 20
200.627443631699407
 30
0.0
 11
217.8801465303349119
 21
200.627443631699407
 31
0.0
  0
POLYLINE
  5
28B21
  8
0
  6
BYBLOCK
 62
     0
 66
     1
 10
0.0
 20
0.0
 30
0.0
 70
     1
 40
0.2
 41
0.2
  0
VERTEX
  5
28C92
  8
0
  6
BYBLOCK
 62
     0
 10
212.3801465303349119
 20
200.627443631699407
 30
0.0
 42
1.0
  0
VERTEX
  5
28C93
  8
0
  6
BYBLOCK
 62
     0
 10
212.1801465303348948
 20
200.627443631699407
 30
0.0
 42
1.0
  0
SEQEND
  5
28C94
  8
0
  6
BYBLOCK
 62
     0
  0
LINE
  5
28B22
  8
0
  6
BYBLOCK
 62
     0
 10
212.4801465303349062
 20
200.627443631699407
 30
0.0
 11
212.6801465303348948
 21
200.627443631699407
 31
0.0
  0
TEXT
  5
28B23
  8
寸法
 62
     2
 10
213.6801465303348948
 20
201.252443631699407
 30
0.0
 40
2.399999999999999
  1
18
  0
POLYLINE
  5
28B24
  8
0
  6
BYBLOCK
 62
     0
 66
     1
 10
0.0
 20
0.0
 30
0.0
 70
     1
 40
0.2000000000000001
 41
0.2000000000000001
  0
VERTEX
  5
28C95
  8
0
  6
BYBLOCK
 62
     0
 10
194.1231361022286137
 20
190.0985059208890959
 30
0.0
 42
1.0
  0
VERTEX
  5
28C96
  8
0
  6
BYBLOCK
 62
     0
 10
194.1231361022286137
 20
190.298505920889113
 30
0.0
 42
1.0
  0
SEQEND
  5
28C97
  8
0
  6
BYBLOCK
 62
     0
  0
LINE
  5
28B25
  8
0
  6
BYBLOCK
 62
     0
 10
194.1231361022286137
 20
189.9985059208891016
 30
0.0
 11
194.1231361022286137
 21
189.798505920889113
 31
0.0
  0
POLYLINE
  5
28B26
  8
0
  6
BYBLOCK
 62
     0
 66
     1
 10
0.0
 20
0.0
 30
0.0
 70
     1
 40
0.2
 41
0.2
  0
VERTEX
  5
28C98
  8
0
  6
BYBLOCK
 62
     0
 10
194.1231361022286137
 20
56.9651725875557418
 30
0.0
 42
1.0
  0
VERTEX
  5
28C99
  8
0
  6
BYBLOCK
 62
     0
 10
194.1231361022286137
 20
56.7651725875557318
 30
0.0
 42
1.0
  0
SEQEND
  5
28C9A
  8
0
  6
BYBLOCK
 62
     0
  0
LINE
  5
28B27
  8
0
  6
BYBLOCK
 62
     0
 10
194.1231361022286137
 20
57.0651725875557503
 30
0.0
 11
194.1231361022286137
 21
57.2651725875557389
 31
0.0
  0
TEXT
  5
28B28
  8
寸法
 62
     2
 10
193.4981361022286137
 20
120.7318392542222938
 30
0.0
 40
2.399999999999999
  1
600
 50
90.0
  0
POLYLINE
  5
28B29
  8
0
  6
BYBLOCK
 62
     0
 66
     1
 10
0.0
 20
0.0
 30
0.0
 70
     1
 40
0.4000000000000001
 41
0.4000000000000001
  0
VERTEX
  5
28C9B
  8
0
  6
BYBLOCK
 62
     0
 10
215.4059932152287899
 20
57.3259807680895932
 30
0.0
 42
1.0
  0
VERTEX
  5
28C9C
  8
0
  6
BYBLOCK
 62
     0
 10
215.154299845440903
 20
57.0150942170700503
 30
0.0
 42
1.0
  0
SEQEND
  5
28C9D
  8
0
  6
BYBLOCK
 62
     0
  0
LINE
  5
28B2A
  8
0
  6
BYBLOCK
 62
     0
 10
215.5318399001228045
 20
57.4814240435993611
 30
0.0
 11
215.7835332699106061
 21
57.7923105946188898
 31
0.0
  0
LINE
  5
28B2B
  8
注釈
 10
215.7835332699106061
 20
57.7923105946188898
 30
0.0
 11
242.8061449198604862
 21
91.1700930227913346
 31
0.0
1001
ACAD
1000
DSTYLE
1002
{
1070
   147
1040
0.09
1070
    41
1040
0.8
1070
    42
1040
2.0
1070
    43
1040
0.35
1070
    44
1040
0.0
1070
    73
1070
     0
1070
    74
1070
     0
1070
    77
1070
     0
1070
    78
1070
     8
1070
   140
1040
2.399999999999999
1070
   144
1040
2.0
1070
   176
1070
     2
1070
   177
1070
     2
1070
   178
1070
     2
1070
   271
1070
     1
1070
   272
1070
     1
1070
   340
1005
2278D
1070
   341
1005
36B9
1070
   342
1005
36B9
1070
   371
1070
    -1
1070
   372
1070
    -1
1002
}
  0
POLYLINE
  5
28B2C
  8
0
  6
BYBLOCK
 62
     0
 66
     1
 10
0.0
 20
0.0
 30
0.0
 70
     1
 40
0.2
 41
0.2
  0
VERTEX
  5
28C9E
  8
0
  6
BYBLOCK
 62
     0
 10
233.1077509830051895
 20
146.9651738047587912
 30
0.0
 42
1.0
  0
VERTEX
  5
28C9F
  8
0
  6
BYBLOCK
 62
     0
 10
233.1077509830051895
 20
146.7651738047586889
 30
0.0
 42
1.0
  0
SEQEND
  5
28CA0
  8
0
  6
BYBLOCK
 62
     0
  0
LINE
  5
28B2D
  8
0
  6
BYBLOCK
 62
     0
 10
233.1077509830051895
 20
147.0651738047587003
 30
0.0
 11
233.1077509830051895
 21
147.2651738047588026
 31
0.0
  0
POLYLINE
  5
28B2E
  8
0
  6
BYBLOCK
 62
     0
 66
     1
 10
0.0
 20
0.0
 30
0.0
 70
     1
 40
0.2000000000000001
 41
0.2000000000000001
  0
VERTEX
  5
28CA1
  8
0
  6
BYBLOCK
 62
     0
 10
233.1077509830051895
 20
190.0985071380920886
 30
0.0
 42
1.0
  0
VERTEX
  5
28CA2
  8
0
  6
BYBLOCK
 62
     0
 10
233.1077509830051895
 20
190.2985071380921056
 30
0.0
 42
1.0
  0
SEQEND
  5
28CA3
  8
0
  6
BYBLOCK
 62
     0
  0
LINE
  5
28B2F
  8
0
  6
BYBLOCK
 62
     0
 10
233.1077509830051895
 20
189.9985071380920942
 30
0.0
 11
233.1077509830051895
 21
189.7985071380921056
 31
0.0
  0
TEXT
  5
28B30
  8
寸法
 62
     2
 10
236.1327509830051952
 20
165.9318404714252893
 30
0.0
 40
2.399999999999999
  1
130
 50
90.0
  0
POLYLINE
  5
28B31
  8
0
  6
BYBLOCK
 62
     0
 66
     1
 10
0.0
 20
0.0
 30
0.0
 70
     1
 40
0.2000000000000001
 41
0.2000000000000001
  0
VERTEX
  5
28CA4
  8
0
  6
BYBLOCK
 62
     0
 10
233.1077509830055021
 20
76.7651823375556717
 30
0.0
 42
1.0
  0
VERTEX
  5
28CA5
  8
0
  6
BYBLOCK
 62
     0
 10
233.1077509830055021
 20
76.9651823375556603
 30
0.0
 42
1.0
  0
SEQEND
  5
28CA6
  8
0
  6
BYBLOCK
 62
     0
  0
LINE
  5
28B32
  8
0
  6
BYBLOCK
 62
     0
 10
233.1077509830055021
 20
76.6651823375556631
 30
0.0
 11
233.1077509830055021
 21
76.4651823375556603
 31
0.0
  0
POLYLINE
  5
28B33
  8
0
  6
BYBLOCK
 62
     0
 66
     1
 10
0.0
 20
0.0
 30
0.0
 70
     1
 40
0.2
 41
0.2
  0
VERTEX
  5
28CA7
  8
0
  6
BYBLOCK
 62
     0
 10
233.1077509830055021
 20
56.9651823375556674
 30
0.0
 42
1.0
  0
VERTEX
  5
28CA8
  8
0
  6
BYBLOCK
 62
     0
 10
233.1077509830055021
 20
56.7651823375556575
 30
0.0
 42
1.0
  0
SEQEND
  5
28CA9
  8
0
  6
BYBLOCK
 62
     0
  0
LINE
  5
28B34
  8
0
  6
BYBLOCK
 62
     0
 10
233.1077509830055021
 20
57.0651823375556617
 30
0.0
 11
233.1077509830055021
 21
57.2651823375556575
 31
0.0
  0
TEXT
  5
28B35
  8
寸法
 62
     2
 10
236.1327509830053941
 20
65.0651823375555836
 30
0.0
 40
2.399999999999999
  1
60
 50
90.0
  0
POLYLINE
  5
28B36
  8
0
  6
BYBLOCK
 62
     0
 66
     1
 10
0.0
 20
0.0
 30
0.0
 70
     1
 40
0.2000000000000001
 41
0.2000000000000001
  0
VERTEX
  5
28CAA
  8
0
  6
BYBLOCK
 62
     0
 10
233.1077509830057863
 20
146.7651738047588026
 30
0.0
 42
1.0
  0
VERTEX
  5
28CAB
  8
0
  6
BYBLOCK
 62
     0
 10
233.1077509830057863
 20
146.9651738047587912
 30
0.0
 42
1.0
  0
SEQEND
  5
28CAC
  8
0
  6
BYBLOCK
 62
     0
  0
LINE
  5
28B37
  8
0
  6
BYBLOCK
 62
     0
 10
233.1077509830057863
 20
146.6651738047588083
 30
0.0
 11
233.1077509830057863
 21
146.4651738047587912
 31
0.0
  0
POLYLINE
  5
28B38
  8
0
  6
BYBLOCK
 62
     0
 66
     1
 10
0.0
 20
0.0
 30
0.0
 70
     1
 40
0.2
 41
0.2
  0
VERTEX
  5
28CAD
  8
0
  6
BYBLOCK
 62
     0
 10
233.1077509830057863
 20
76.9651823375556745
 30
0.0
 42
1.0
  0
VERTEX
  5
28CAE
  8
0
  6
BYBLOCK
 62
     0
 10
233.1077509830057863
 20
76.7651823375557001
 30
0.0
 42
1.0
  0
SEQEND
  5
28CAF
  8
0
  6
BYBLOCK
 62
     0
  0
LINE
  5
28B39
  8
0
  6
BYBLOCK
 62
     0
 10
233.1077509830057863
 20
77.0651823375556972
 30
0.0
 11
233.1077509830057863
 21
77.2651823375557001
 31
0.0
  0
TEXT
  5
28B3A
  8
寸法
 62
     2
 10
236.132750983005792
 20
109.265178071157095
 30
0.0
 40
2.399999999999999
  1
410
 50
90.0
  0
TEXT
  5
28B3B
  8
注釈
 10
242.7852202793339131
 20
110.7662355311452984
 30
0.0
 40
2.5
  1
ブラケット：アルミ型材
  0
LINE
  5
28B3C
  8
注釈
  6
BYBLOCK
 10
219.9818727195309975
 20
85.3835335201560355
 30
0.0
 11
240.7585536126672139
 21
110.2662355311452984
 31
0.0
  0
POLYLINE
  5
28B3D
  8
0
  6
BYBLOCK
 62
     0
 66
     1
 10
0.0
 20
0.0
 30
0.0
 70
     1
 40
0.5
 41
0.5
  0
VERTEX
  5
28CB0
  8
0
  6
BYBLOCK
 62
     0
 10
219.5011735113642999
 20
84.807835447145635
 30
0.0
 42
1.0
  0
VERTEX
  5
28CB1
  8
0
  6
BYBLOCK
 62
     0
 10
219.1807073725865109
 20
84.4240367318053444
 30
0.0
 42
1.0
  0
SEQEND
  5
28CB2
  8
0
  6
BYBLOCK
 62
     0
  0
LINE
  5
28B3E
  8
0
  6
BYBLOCK
 62
     0
 10
219.6614065807532938
 20
84.999734804815759
 30
0.0
 11
219.9818727195309975
 21
85.3835335201560355
 31
0.0
  0
LINE
  5
28B3F
  8
注釈
  6
BYBLOCK
 10
241.1185536126671991
 20
110.2662355311452984
 30
0.0
 11
275.1185536126671991
 21
110.2662355311452984
 31
0.0
  0
POLYLINE
  5
28B40
  8
0
  6
BYBLOCK
 62
     0
 66
     1
 10
0.0
 20
0.0
 30
0.0
 70
     1
 40
0.2000000000000001
 41
0.2000000000000001
  0
VERTEX
  5
28CB3
  8
0
  6
BYBLOCK
 62
     0
 10
205.3649715597815941
 20
124.7651725875557958
 30
0.0
 42
1.0
  0
VERTEX
  5
28CB4
  8
0
  6
BYBLOCK
 62
     0
 10
205.3649715597815941
 20
124.9651725875556991
 30
0.0
 42
1.0
  0
SEQEND
  5
28CB5
  8
0
  6
BYBLOCK
 62
     0
  0
LINE
  5
28B41
  8
0
  6
BYBLOCK
 62
     0
 10
205.3649715597815941
 20
124.6651725875558014
 30
0.0
 11
205.3649715597815941
 21
124.4651725875557986
 31
0.0
  0
POLYLINE
  5
28B42
  8
0
  6
BYBLOCK
 62
     0
 66
     1
 10
0.0
 20
0.0
 30
0.0
 70
     1
 40
0.2
 41
0.2
  0
VERTEX
  5
28CB6
  8
0
  6
BYBLOCK
 62
     0
 10
205.3649715597815941
 20
118.2985059208890988
 30
0.0
 42
1.0
  0
VERTEX
  5
28CB7
  8
0
  6
BYBLOCK
 62
     0
 10
205.3649715597815941
 20
118.0985059208890959
 30
0.0
 42
1.0
  0
SEQEND
  5
28CB8
  8
0
  6
BYBLOCK
 62
     0
  0
LINE
  5
28B43
  8
0
  6
BYBLOCK
 62
     0
 10
205.3649715597815941
 20
118.3985059208890931
 30
0.0
 11
205.3649715597815941
 21
118.5985059208890959
 31
0.0
  0
TEXT
  5
28B44
  8
寸法
 62
     2
 10
204.7399715597815941
 20
119.7318392542222938
 30
0.0
 40
2.399999999999999
  1
20
 50
90.0
  0
POLYLINE
  5
28B45
  8
0
  6
BYBLOCK
 62
     0
 66
     1
 10
0.0
 20
0.0
 30
0.0
 70
     1
 40
0.2000000000000001
 41
0.2000000000000001
  0
VERTEX
  5
28CB9
  8
0
  6
BYBLOCK
 62
     0
 10
205.3649715597817931
 20
190.0985059208890959
 30
0.0
 42
1.0
  0
VERTEX
  5
28CBA
  8
0
  6
BYBLOCK
 62
     0
 10
205.3649715597817931
 20
190.298505920889113
 30
0.0
 42
1.0
  0
SEQEND
  5
28CBB
  8
0
  6
BYBLOCK
 62
     0
  0
LINE
  5
28B46
  8
0
  6
BYBLOCK
 62
     0
 10
205.3649715597817931
 20
189.9985059208891016
 30
0.0
 11
205.3649715597817931
 21
189.798505920889113
 31
0.0
  0
POLYLINE
  5
28B47
  8
0
  6
BYBLOCK
 62
     0
 66
     1
 10
0.0
 20
0.0
 30
0.0
 70
     1
 40
0.2
 41
0.2
  0
VERTEX
  5
28CBC
  8
0
  6
BYBLOCK
 62
     0
 10
205.3649715597817931
 20
143.6318392542223989
 30
0.0
 42
1.0
  0
VERTEX
  5
28CBD
  8
0
  6
BYBLOCK
 62
     0
 10
205.3649715597817931
 20
143.4318392542224103
 30
0.0
 42
1.0
  0
SEQEND
  5
28CBE
  8
0
  6
BYBLOCK
 62
     0
  0
LINE
  5
28B48
  8
0
  6
BYBLOCK
 62
     0
 10
205.3649715597817931
 20
143.7318392542223933
 30
0.0
 11
205.3649715597817931
 21
143.9318392542224103
 31
0.0
  0
TEXT
  5
28B49
  8
注釈
 62
     2
 10
204.7399715597819068
 20
164.265172587555611
 30
0.0
 40
2.399999999999999
  1
140
 50
90.0
  0
POLYLINE
  5
28B4A
  8
0
  6
BYBLOCK
 62
     0
 66
     1
 10
0.0
 20
0.0
 30
0.0
 70
     1
 40
0.4
 41
0.4
  0
VERTEX
  5
28CBF
  8
0
  6
BYBLOCK
 62
     0
 10
79.4646825335630496
 20
117.6365382352618951
 30
0.0
 42
1.0
  0
VERTEX
  5
28CC0
  8
0
  6
BYBLOCK
 62
     0
 10
79.2723511070208957
 20
117.2858123845404066
 30
0.0
 42
1.0
  0
SEQEND
  5
28CC1
  8
0
  6
BYBLOCK
 62
     0
  0
LINE
  5
28B4B
  8
0
  6
BYBLOCK
 62
     0
 10
79.5608482468341265
 20
117.8119011606225968
 30
0.0
 11
79.7531796733762945
 21
118.162627011344
 31
0.0
  0
LINE
  5
28B4C
  8
注釈
 10
79.7531796733762945
 20
118.162627011344
 30
0.0
 11
98.6439885657801483
 21
152.6109495695488931
 31
0.0
1001
ACAD
1000
DSTYLE
1002
{
1070
   147
1040
0.09
1070
    41
1040
0.8
1070
    42
1040
2.0
1070
    43
1040
0.35
1070
    44
1040
0.0
1070
    73
1070
     0
1070
    74
1070
     0
1070
    77
1070
     0
1070
    78
1070
     8
1070
   140
1040
2.399999999999999
1070
   144
1040
2.0
1070
   176
1070
     2
1070
   177
1070
     2
1070
   178
1070
     2
1070
   271
1070
     1
1070
   272
1070
     1
1070
   340
1005
2278D
1070
   341
1005
36B9
1070
   342
1005
36B9
1070
   371
1070
    -1
1070
   372
1070
    -1
1002
}
  0
POLYLINE
  5
28B4D
  8
0
  6
BYBLOCK
 62
     0
 66
     1
 10
0.0
 20
0.0
 30
0.0
 70
     1
 40
0.2000000000000001
 41
0.2000000000000001
  0
VERTEX
  5
28CC2
  8
0
  6
BYBLOCK
 62
     0
 10
63.6690835383011375
 20
145.4424333611268025
 30
0.0
 42
1.0
  0
VERTEX
  5
28CC3
  8
0
  6
BYBLOCK
 62
     0
 10
63.6690835383011375
 20
145.6424333611267912
 30
0.0
 42
1.0
  0
SEQEND
  5
28CC4
  8
0
  6
BYBLOCK
 62
     0
  0
LINE
  5
28B4E
  8
0
  6
BYBLOCK
 62
     0
 10
63.6690835383011375
 20
145.3424333611268082
 30
0.0
 11
63.6690835383011375
 21
145.1424333611267912
 31
0.0
  0
POLYLINE
  5
28B4F
  8
0
  6
BYBLOCK
 62
     0
 66
     1
 10
0.0
 20
0.0
 30
0.0
 70
     1
 40
0.2
 41
0.2
  0
VERTEX
  5
28CC5
  8
0
  6
BYBLOCK
 62
     0
 10
63.6690835383011517
 20
85.6424333611268338
 30
0.0
 42
1.0
  0
VERTEX
  5
28CC6
  8
0
  6
BYBLOCK
 62
     0
 10
63.6690835383011517
 20
85.4424333611268452
 30
0.0
 42
1.0
  0
SEQEND
  5
28CC7
  8
0
  6
BYBLOCK
 62
     0
  0
LINE
  5
28B50
  8
0
  6
BYBLOCK
 62
     0
 10
63.6690835383011517
 20
85.7424333611268565
 30
0.0
 11
63.6690835383011517
 21
85.9424333611268452
 31
0.0
  0
TEXT
  5
28B51
  8
寸法
 62
     2
 10
63.0440835383011517
 20
112.7424333611267997
 30
0.0
 40
2.399999999999999
  1
600
 50
90.0
  0
POLYLINE
  5
28B52
  8
0
  6
BYBLOCK
 62
     0
 66
     1
 10
0.0
 20
0.0
 30
0.0
 70
     1
 40
0.2000000000000001
 41
0.2000000000000001
  0
VERTEX
  5
28CC8
  8
0
  6
BYBLOCK
 62
     0
 10
70.076507432257273
 20
145.4424333611268025
 30
0.0
 42
1.0
  0
VERTEX
  5
28CC9
  8
0
  6
BYBLOCK
 62
     0
 10
70.076507432257273
 20
145.6424333611267912
 30
0.0
 42
1.0
  0
SEQEND
  5
28CCA
  8
0
  6
BYBLOCK
 62
     0
  0
LINE
  5
28B53
  8
0
  6
BYBLOCK
 62
     0
 10
70.076507432257273
 20
145.3424333611268082
 30
0.0
 11
70.076507432257273
 21
145.1424333611267912
 31
0.0
  0
POLYLINE
  5
28B54
  8
0
  6
BYBLOCK
 62
     0
 66
     1
 10
0.0
 20
0.0
 30
0.0
 70
     1
 40
0.2
 41
0.2
  0
VERTEX
  5
28CCB
  8
0
  6
BYBLOCK
 62
     0
 10
70.076507432257273
 20
131.6424333611267912
 30
0.0
 42
1.0
  0
VERTEX
  5
28CCC
  8
0
  6
BYBLOCK
 62
     0
 10
70.076507432257273
 20
131.4424333611268025
 30
0.0
 42
1.0
  0
SEQEND
  5
28CCD
  8
0
  6
BYBLOCK
 62
     0
  0
LINE
  5
28B55
  8
0
  6
BYBLOCK
 62
     0
 10
70.076507432257273
 20
131.7424333611268139
 30
0.0
 11
70.076507432257273
 21
131.9424333611268025
 31
0.0
  0
TEXT
  5
28B56
  8
寸法
 62
     2
 10
69.4515074322573014
 20
136.9174333611267969
 30
0.0
 40
1.5
  1
140
 50
90.0
  0
POLYLINE
  5
28B57
  8
0
  6
BYBLOCK
 62
     0
 66
     1
 10
0.0
 20
0.0
 30
0.0
 70
     1
 40
0.2000000000000001
 41
0.2000000000000001
  0
VERTEX
  5
28CCE
  8
0
  6
BYBLOCK
 62
     0
 10
70.0765074322573156
 20
131.4424333611268025
 30
0.0
 42
1.0
  0
VERTEX
  5
28CCF
  8
0
  6
BYBLOCK
 62
     0
 10
70.0765074322573156
 20
131.6424333611267912
 30
0.0
 42
1.0
  0
SEQEND
  5
28CD0
  8
0
  6
BYBLOCK
 62
     0
  0
LINE
  5
28B58
  8
0
  6
BYBLOCK
 62
     0
 10
70.0765074322573156
 20
131.3424333611268082
 30
0.0
 11
70.0765074322573156
 21
131.1424333611267912
 31
0.0
  0
POLYLINE
  5
28B59
  8
0
  6
BYBLOCK
 62
     0
 66
     1
 10
0.0
 20
0.0
 30
0.0
 70
     1
 40
0.2
 41
0.2
  0
VERTEX
  5
28CD1
  8
0
  6
BYBLOCK
 62
     0
 10
70.0765074322573156
 20
124.4424333611268025
 30
0.0
 42
1.0
  0
VERTEX
  5
28CD2
  8
0
  6
BYBLOCK
 62
     0
 10
70.0765074322573156
 20
124.2424333611268992
 30
0.0
 42
1.0
  0
SEQEND
  5
28CD3
  8
0
  6
BYBLOCK
 62
     0
  0
LINE
  5
28B5A
  8
0
  6
BYBLOCK
 62
     0
 10
70.0765074322573156
 20
124.5424333611267969
 30
0.0
 11
70.0765074322573156
 21
124.7424333611267997
 31
0.0
  0
TEXT
  5
28B5B
  8
寸法
 62
     2
 10
69.451507432257344
 20
126.6924333611268025
 30
0.0
 40
1.5
  1
72
 50
90.0
  0
POLYLINE
  5
28B5C
  8
0
  6
BYBLOCK
 62
     0
 66
     1
 10
0.0
 20
0.0
 30
0.0
 70
     1
 40
0.2
 41
0.2
  0
VERTEX
  5
28CD4
  8
0
  6
BYBLOCK
 62
     0
 10
70.0765074322573156
 20
124.4424333611268025
 30
0.0
 42
1.0
  0
VERTEX
  5
28CD5
  8
0
  6
BYBLOCK
 62
     0
 10
70.0765074322573156
 20
124.2424333611268992
 30
0.0
 42
1.0
  0
SEQEND
  5
28CD6
  8
0
  6
BYBLOCK
 62
     0
  0
LINE
  5
28B5D
  8
0
  6
BYBLOCK
 62
     0
 10
70.0765074322573156
 20
124.5424333611267969
 30
0.0
 11
70.0765074322573156
 21
124.7424333611267997
 31
0.0
  0
POLYLINE
  5
28B5E
  8
0
  6
BYBLOCK
 62
     0
 66
     1
 10
0.0
 20
0.0
 30
0.0
 70
     1
 40
0.2000000000000001
 41
0.2000000000000001
  0
VERTEX
  5
28CD7
  8
0
  6
BYBLOCK
 62
     0
 10
70.0765074322573156
 20
122.2424333611268992
 30
0.0
 42
1.0
  0
VERTEX
  5
28CD8
  8
0
  6
BYBLOCK
 62
     0
 10
70.0765074322573156
 20
122.4424333611268025
 30
0.0
 42
1.0
  0
SEQEND
  5
28CD9
  8
0
  6
BYBLOCK
 62
     0
  0
LINE
  5
28B5F
  8
0
  6
BYBLOCK
 62
     0
 10
70.0765074322573156
 20
122.1424333611268054
 30
0.0
 11
70.0765074322573156
 21
121.9424333611268025
 31
0.0
  0
TEXT
  5
28B60
  8
寸法
 62
     2
 10
69.451507432257344
 20
122.217433361126794
 30
0.0
 40
1.5
  1
20
 50
90.0
  0
POLYLINE
  5
28B61
  8
0
  6
BYBLOCK
 62
     0
 66
     1
 10
0.0
 20
0.0
 30
0.0
 70
     1
 40
0.2000000000000001
 41
0.2000000000000001
  0
VERTEX
  5
28CDA
  8
0
  6
BYBLOCK
 62
     0
 10
70.0765074322574293
 20
103.8424333611268935
 30
0.0
 42
1.0
  0
VERTEX
  5
28CDB
  8
0
  6
BYBLOCK
 62
     0
 10
70.0765074322574293
 20
104.0424333611268963
 30
0.0
 42
1.0
  0
SEQEND
  5
28CDC
  8
0
  6
BYBLOCK
 62
     0
  0
LINE
  5
28B62
  8
0
  6
BYBLOCK
 62
     0
 10
70.0765074322574293
 20
103.7424333611268992
 30
0.0
 11
70.0765074322574293
 21
103.5424333611267969
 31
0.0
  0
POLYLINE
  5
28B63
  8
0
  6
BYBLOCK
 62
     0
 66
     1
 10
0.0
 20
0.0
 30
0.0
 70
     1
 40
0.2
 41
0.2
  0
VERTEX
  5
28CDD
  8
0
  6
BYBLOCK
 62
     0
 10
70.0765074322574293
 20
96.8424333611268935
 30
0.0
 42
1.0
  0
VERTEX
  5
28CDE
  8
0
  6
BYBLOCK
 62
     0
 10
70.0765074322574293
 20
96.6424333611269049
 30
0.0
 42
1.0
  0
SEQEND
  5
28CDF
  8
0
  6
BYBLOCK
 62
     0
  0
LINE
  5
28B64
  8
0
  6
BYBLOCK
 62
     0
 10
70.0765074322574293
 20
96.9424333611269162
 30
0.0
 11
70.0765074322574293
 21
97.1424333611269049
 31
0.0
  0
TEXT
  5
28B65
  8
寸法
 62
     2
 10
69.4515074322574435
 20
99.0924333611268651
 30
0.0
 40
1.5
  1
72
 50
90.0
  0
POLYLINE
  5
28B66
  8
0
  6
BYBLOCK
 62
     0
 66
     1
 10
0.0
 20
0.0
 30
0.0
 70
     1
 40
0.2
 41
0.2
  0
VERTEX
  5
28CE0
  8
0
  6
BYBLOCK
 62
     0
 10
70.0765074322573298
 20
96.8424333611268935
 30
0.0
 42
1.0
  0
VERTEX
  5
28CE1
  8
0
  6
BYBLOCK
 62
     0
 10
70.0765074322573298
 20
96.6424333611269049
 30
0.0
 42
1.0
  0
SEQEND
  5
28CE2
  8
0
  6
BYBLOCK
 62
     0
  0
LINE
  5
28B67
  8
0
  6
BYBLOCK
 62
     0
 10
70.0765074322573298
 20
96.9424333611269162
 30
0.0
 11
70.0765074322573298
 21
97.1424333611269049
 31
0.0
  0
POLYLINE
  5
28B68
  8
0
  6
BYBLOCK
 62
     0
 66
     1
 10
0.0
 20
0.0
 30
0.0
 70
     1
 40
0.2000000000000001
 41
0.2000000000000001
  0
VERTEX
  5
28CE3
  8
0
  6
BYBLOCK
 62
     0
 10
70.076507432257344
 20
94.6424333611268764
 30
0.0
 42
1.0
  0
VERTEX
  5
28CE4
  8
0
  6
BYBLOCK
 62
     0
 10
70.076507432257344
 20
94.8424333611268651
 30
0.0
 42
1.0
  0
SEQEND
  5
28CE5
  8
0
  6
BYBLOCK
 62
     0
  0
LINE
  5
28B69
  8
0
  6
BYBLOCK
 62
     0
 10
70.076507432257344
 20
94.5424333611268679
 30
0.0
 11
70.076507432257344
 21
94.3424333611268651
 31
0.0
  0
TEXT
  5
28B6A
  8
寸法
 62
     2
 10
69.451507432257344
 20
94.6174333611268423
 30
0.0
 40
1.5
  1
20
 50
90.0
  0
POLYLINE
  5
28B6B
  8
0
  6
BYBLOCK
 62
     0
 66
     1
 10
0.0
 20
0.0
 30
0.0
 70
     1
 40
0.2000000000000001
 41
0.2000000000000001
  0
VERTEX
  5
28CE6
  8
0
  6
BYBLOCK
 62
     0
 10
70.0765074322573724
 20
94.642433361126848
 30
0.0
 42
1.0
  0
VERTEX
  5
28CE7
  8
0
  6
BYBLOCK
 62
     0
 10
70.0765074322573724
 20
94.8424333611268366
 30
0.0
 42
1.0
  0
SEQEND
  5
28CE8
  8
0
  6
BYBLOCK
 62
     0
  0
LINE
  5
28B6C
  8
0
  6
BYBLOCK
 62
     0
 10
70.0765074322573724
 20
94.5424333611268395
 30
0.0
 11
70.0765074322573724
 21
94.3424333611268366
 31
0.0
  0
POLYLINE
  5
28B6D
  8
0
  6
BYBLOCK
 62
     0
 66
     1
 10
0.0
 20
0.0
 30
0.0
 70
     1
 40
0.2
 41
0.2
  0
VERTEX
  5
28CE9
  8
0
  6
BYBLOCK
 62
     0
 10
70.0765074322573724
 20
87.6424333611268338
 30
0.0
 42
1.0
  0
VERTEX
  5
28CEA
  8
0
  6
BYBLOCK
 62
     0
 10
70.0765074322573724
 20
87.4424333611268736
 30
0.0
 42
1.0
  0
SEQEND
  5
28CEB
  8
0
  6
BYBLOCK
 62
     0
  0
LINE
  5
28B6E
  8
0
  6
BYBLOCK
 62
     0
 10
70.0765074322573724
 20
87.7424333611268565
 30
0.0
 11
70.0765074322573724
 21
87.9424333611268452
 31
0.0
  0
TEXT
  5
28B6F
  8
寸法
 62
     2
 10
69.4515074322573724
 20
89.8924333611268196
 30
0.0
 40
1.5
  1
72
 50
90.0
  0
POLYLINE
  5
28B70
  8
0
  6
BYBLOCK
 62
     0
 66
     1
 10
0.0
 20
0.0
 30
0.0
 70
     1
 40
0.2
 41
0.2
  0
VERTEX
  5
28CEC
  8
0
  6
BYBLOCK
 62
     0
 10
70.0765074322574009
 20
87.6424333611268338
 30
0.0
 42
1.0
  0
VERTEX
  5
28CED
  8
0
  6
BYBLOCK
 62
     0
 10
70.0765074322574009
 20
87.4424333611268736
 30
0.0
 42
1.0
  0
SEQEND
  5
28CEE
  8
0
  6
BYBLOCK
 62
     0
  0
LINE
  5
28B71
  8
0
  6
BYBLOCK
 62
     0
 10
70.0765074322574009
 20
87.7424333611268565
 30
0.0
 11
70.0765074322574009
 21
87.9424333611268452
 31
0.0
  0
POLYLINE
  5
28B72
  8
0
  6
BYBLOCK
 62
     0
 66
     1
 10
0.0
 20
0.0
 30
0.0
 70
     1
 40
0.2000000000000001
 41
0.2000000000000001
  0
VERTEX
  5
28CEF
  8
0
  6
BYBLOCK
 62
     0
 10
70.0765074322574009
 20
85.4424333611268452
 30
0.0
 42
1.0
  0
VERTEX
  5
28CF0
  8
0
  6
BYBLOCK
 62
     0
 10
70.0765074322574009
 20
85.642433361126848
 30
0.0
 42
1.0
  0
SEQEND
  5
28CF1
  8
0
  6
BYBLOCK
 62
     0
  0
LINE
  5
28B73
  8
0
  6
BYBLOCK
 62
     0
 10
70.0765074322574009
 20
85.3424333611268651
 30
0.0
 11
70.0765074322574009
 21
85.1424333611268338
 31
0.0
  0
TEXT
  5
28B74
  8
寸法
 62
     2
 10
69.4515074322574009
 20
85.4174333611268253
 30
0.0
 40
1.5
  1
20
 50
90.0
  0
POLYLINE
  5
28B75
  8
0
  6
BYBLOCK
 62
     0
 66
     1
 10
0.0
 20
0.0
 30
0.0
 70
     1
 40
0.2000000000000001
 41
0.2000000000000001
  0
VERTEX
  5
28CF2
  8
0
  6
BYBLOCK
 62
     0
 10
70.0765074322574861
 20
122.2424333611268992
 30
0.0
 42
1.0
  0
VERTEX
  5
28CF3
  8
0
  6
BYBLOCK
 62
     0
 10
70.0765074322574861
 20
122.442433361126902
 30
0.0
 42
1.0
  0
SEQEND
  5
28CF4
  8
0
  6
BYBLOCK
 62
     0
  0
LINE
  5
28B76
  8
0
  6
BYBLOCK
 62
     0
 10
70.0765074322574861
 20
122.1424333611269049
 30
0.0
 11
70.0765074322574861
 21
121.942433361126902
 31
0.0
  0
POLYLINE
  5
28B77
  8
0
  6
BYBLOCK
 62
     0
 66
     1
 10
0.0
 20
0.0
 30
0.0
 70
     1
 40
0.2
 41
0.2
  0
VERTEX
  5
28CF5
  8
0
  6
BYBLOCK
 62
     0
 10
70.0765074322574861
 20
115.2424333611268992
 30
0.0
 42
1.0
  0
VERTEX
  5
28CF6
  8
0
  6
BYBLOCK
 62
     0
 10
70.0765074322574861
 20
115.0424333611268963
 30
0.0
 42
1.0
  0
SEQEND
  5
28CF7
  8
0
  6
BYBLOCK
 62
     0
  0
LINE
  5
28B78
  8
0
  6
BYBLOCK
 62
     0
 10
70.0765074322574861
 20
115.3424333611268935
 30
0.0
 11
70.0765074322574861
 21
115.5424333611268963
 31
0.0
  0
TEXT
  5
28B79
  8
寸法
 62
     2
 10
69.4515074322575146
 20
117.4924333611267997
 30
0.0
 40
1.5
  1
72
 50
90.0
  0
POLYLINE
  5
28B7A
  8
0
  6
BYBLOCK
 62
     0
 66
     1
 10
0.0
 20
0.0
 30
0.0
 70
     1
 40
0.2
 41
0.2
  0
VERTEX
  5
28CF8
  8
0
  6
BYBLOCK
 62
     0
 10
70.0765074322573298
 20
115.2424333611268992
 30
0.0
 42
1.0
  0
VERTEX
  5
28CF9
  8
0
  6
BYBLOCK
 62
     0
 10
70.0765074322573298
 20
115.0424333611268963
 30
0.0
 42
1.0
  0
SEQEND
  5
28CFA
  8
0
  6
BYBLOCK
 62
     0
  0
LINE
  5
28B7B
  8
0
  6
BYBLOCK
 62
     0
 10
70.0765074322573298
 20
115.3424333611268935
 30
0.0
 11
70.0765074322573298
 21
115.5424333611268963
 31
0.0
  0
POLYLINE
  5
28B7C
  8
0
  6
BYBLOCK
 62
     0
 66
     1
 10
0.0
 20
0.0
 30
0.0
 70
     1
 40
0.2000000000000001
 41
0.2000000000000001
  0
VERTEX
  5
28CFB
  8
0
  6
BYBLOCK
 62
     0
 10
70.0765074322573298
 20
113.0424333611268963
 30
0.0
 42
1.0
  0
VERTEX
  5
28CFC
  8
0
  6
BYBLOCK
 62
     0
 10
70.0765074322573298
 20
113.2424333611268992
 30
0.0
 42
1.0
  0
SEQEND
  5
28CFD
  8
0
  6
BYBLOCK
 62
     0
  0
LINE
  5
28B7D
  8
0
  6
BYBLOCK
 62
     0
 10
70.0765074322573298
 20
112.942433361126902
 30
0.0
 11
70.0765074322573298
 21
112.7424333611268992
 31
0.0
  0
TEXT
  5
28B7E
  8
寸法
 62
     2
 10
69.451507432257344
 20
113.0174333611268054
 30
0.0
 40
1.5
  1
20
 50
90.0
  0
POLYLINE
  5
28B7F
  8
0
  6
BYBLOCK
 62
     0
 66
     1
 10
0.0
 20
0.0
 30
0.0
 70
     1
 40
0.2000000000000001
 41
0.2000000000000001
  0
VERTEX
  5
28CFE
  8
0
  6
BYBLOCK
 62
     0
 10
70.0765074322574293
 20
113.0424333611268963
 30
0.0
 42
1.0
  0
VERTEX
  5
28CFF
  8
0
  6
BYBLOCK
 62
     0
 10
70.0765074322574293
 20
113.2424333611267997
 30
0.0
 42
1.0
  0
SEQEND
  5
28D00
  8
0
  6
BYBLOCK
 62
     0
  0
LINE
  5
28B80
  8
0
  6
BYBLOCK
 62
     0
 10
70.0765074322574293
 20
112.942433361126902
 30
0.0
 11
70.0765074322574293
 21
112.7424333611268992
 31
0.0
  0
POLYLINE
  5
28B81
  8
0
  6
BYBLOCK
 62
     0
 66
     1
 10
0.0
 20
0.0
 30
0.0
 70
     1
 40
0.2
 41
0.2
  0
VERTEX
  5
28D01
  8
0
  6
BYBLOCK
 62
     0
 10
70.0765074322574293
 20
106.0424333611268963
 30
0.0
 42
1.0
  0
VERTEX
  5
28D02
  8
0
  6
BYBLOCK
 62
     0
 10
70.0765074322574293
 20
105.8424333611268935
 30
0.0
 42
1.0
  0
SEQEND
  5
28D03
  8
0
  6
BYBLOCK
 62
     0
  0
LINE
  5
28B82
  8
0
  6
BYBLOCK
 62
     0
 10
70.0765074322574293
 20
106.1424333611269049
 30
0.0
 11
70.0765074322574293
 21
106.3424333611268935
 31
0.0
  0
TEXT
  5
28B83
  8
寸法
 62
     2
 10
69.4515074322574435
 20
108.2924333611267969
 30
0.0
 40
1.5
  1
72
 50
90.0
  0
POLYLINE
  5
28B84
  8
0
  6
BYBLOCK
 62
     0
 66
     1
 10
0.0
 20
0.0
 30
0.0
 70
     1
 40
0.2
 41
0.2
  0
VERTEX
  5
28D04
  8
0
  6
BYBLOCK
 62
     0
 10
70.0765074322573867
 20
106.0424333611268963
 30
0.0
 42
1.0
  0
VERTEX
  5
28D05
  8
0
  6
BYBLOCK
 62
     0
 10
70.0765074322573867
 20
105.8424333611268935
 30
0.0
 42
1.0
  0
SEQEND
  5
28D06
  8
0
  6
BYBLOCK
 62
     0
  0
LINE
  5
28B85
  8
0
  6
BYBLOCK
 62
     0
 10
70.0765074322573867
 20
106.1424333611269049
 30
0.0
 11
70.0765074322573867
 21
106.3424333611268935
 31
0.0
  0
POLYLINE
  5
28B86
  8
0
  6
BYBLOCK
 62
     0
 66
     1
 10
0.0
 20
0.0
 30
0.0
 70
     1
 40
0.2000000000000001
 41
0.2000000000000001
  0
VERTEX
  5
28D07
  8
0
  6
BYBLOCK
 62
     0
 10
70.0765074322573867
 20
103.8424333611268935
 30
0.0
 42
1.0
  0
VERTEX
  5
28D08
  8
0
  6
BYBLOCK
 62
     0
 10
70.0765074322573867
 20
104.0424333611268963
 30
0.0
 42
1.0
  0
SEQEND
  5
28D09
  8
0
  6
BYBLOCK
 62
     0
  0
LINE
  5
28B87
  8
0
  6
BYBLOCK
 62
     0
 10
70.0765074322573867
 20
103.7424333611268992
 30
0.0
 11
70.0765074322573867
 21
103.5424333611267969
 31
0.0
  0
TEXT
  5
28B88
  8
寸法
 62
     2
 10
69.4515074322574009
 20
103.8174333611268025
 30
0.0
 40
1.5
  1
20
 50
90.0
  0
POLYLINE
  5
28B89
  8
0
  6
BYBLOCK
 62
     0
 66
     1
 10
0.0
 20
0.0
 30
0.0
 70
     1
 40
0.2
 41
0.2
  0
VERTEX
  5
28D0A
  8
0
  6
BYBLOCK
 62
     0
 10
75.6924657950995936
 20
80.7671871294503489
 30
0.0
 42
1.0
  0
VERTEX
  5
28D0B
  8
0
  6
BYBLOCK
 62
     0
 10
75.492465795099605
 20
80.7671871294503489
 30
0.0
 42
1.0
  0
SEQEND
  5
28D0C
  8
0
  6
BYBLOCK
 62
     0
  0
LINE
  5
28B8A
  8
0
  6
BYBLOCK
 62
     0
 10
75.7924657950996021
 20
80.7671871294503489
 30
0.0
 11
75.992465795099605
 21
80.7671871294503489
 31
0.0
  0
POLYLINE
  5
28B8B
  8
0
  6
BYBLOCK
 62
     0
 66
     1
 10
0.0
 20
0.0
 30
0.0
 70
     1
 40
0.2
 41
0.2
  0
VERTEX
  5
28D0D
  8
0
  6
BYBLOCK
 62
     0
 10
82.6924657950996647
 20
80.7671871294503489
 30
0.0
 42
1.0
  0
VERTEX
  5
28D0E
  8
0
  6
BYBLOCK
 62
     0
 10
82.8924657950996249
 20
80.7671871294503489
 30
0.0
 42
1.0
  0
SEQEND
  5
28D0F
  8
0
  6
BYBLOCK
 62
     0
  0
LINE
  5
28B8C
  8
0
  6
BYBLOCK
 62
     0
 10
82.5924657950996419
 20
80.7671871294503489
 30
0.0
 11
82.3924657950996391
 21
80.7671871294503489
 31
0.0
  0
TEXT
  5
28B8D
  8
寸法
 62
     2
 10
77.942465795099622
 20
78.6421871294503489
 30
0.0
 40
1.5
  1
72
  0
POLYLINE
  5
28B8E
  8
0
  6
BYBLOCK
 62
     0
 66
     1
 10
0.0
 20
0.0
 30
0.0
 70
     1
 40
0.2
 41
0.2
  0
VERTEX
  5
28D10
  8
0
  6
BYBLOCK
 62
     0
 10
82.8924657950996249
 20
80.7671871294503489
 30
0.0
 42
1.0
  0
VERTEX
  5
28D11
  8
0
  6
BYBLOCK
 62
     0
 10
82.6924657950996647
 20
80.7671871294503489
 30
0.0
 42
1.0
  0
SEQEND
  5
28D12
  8
0
  6
BYBLOCK
 62
     0
  0
LINE
  5
28B8F
  8
0
  6
BYBLOCK
 62
     0
 10
82.9924657950996476
 20
80.7671871294503489
 30
0.0
 11
83.1924657950996504
 21
80.7671871294503489
 31
0.0
  0
POLYLINE
  5
28B90
  8
0
  6
BYBLOCK
 62
     0
 66
     1
 10
0.0
 20
0.0
 30
0.0
 70
     1
 40
0.2
 41
0.2
  0
VERTEX
  5
28D13
  8
0
  6
BYBLOCK
 62
     0
 10
99.0924657950996277
 20
80.7671871294503489
 30
0.0
 42
1.0
  0
VERTEX
  5
28D14
  8
0
  6
BYBLOCK
 62
     0
 10
99.2924657950996163
 20
80.7671871294503489
 30
0.0
 42
1.0
  0
SEQEND
  5
28D15
  8
0
  6
BYBLOCK
 62
     0
  0
LINE
  5
28B91
  8
0
  6
BYBLOCK
 62
     0
 10
98.9924657950996334
 20
80.7671871294503489
 30
0.0
 11
98.7924657950996163
 21
80.7671871294503489
 31
0.0
  0
TEXT
  5
28B92
  8
寸法
 62
     2
 10
89.2424657950996334
 20
78.6421871294503489
 30
0.0
 40
1.5
  1
164
  0
POLYLINE
  5
28B93
  8
0
  6
BYBLOCK
 62
     0
 66
     1
 10
0.0
 20
0.0
 30
0.0
 70
     1
 40
0.2
 41
0.2
  0
VERTEX
  5
28D16
  8
0
  6
BYBLOCK
 62
     0
 10
99.2924657950996163
 20
80.7671871294503489
 30
0.0
 42
1.0
  0
VERTEX
  5
28D17
  8
0
  6
BYBLOCK
 62
     0
 10
99.0924657950996277
 20
80.7671871294503489
 30
0.0
 42
1.0
  0
SEQEND
  5
28D18
  8
0
  6
BYBLOCK
 62
     0
  0
LINE
  5
28B94
  8
0
  6
BYBLOCK
 62
     0
 10
99.3924657950996249
 20
80.7671871294503489
 30
0.0
 11
99.5924657950996277
 21
80.7671871294503489
 31
0.0
  0
POLYLINE
  5
28B95
  8
0
  6
BYBLOCK
 62
     0
 66
     1
 10
0.0
 20
0.0
 30
0.0
 70
     1
 40
0.2
 41
0.2
  0
VERTEX
  5
28D19
  8
0
  6
BYBLOCK
 62
     0
 10
115.492465795099605
 20
80.7671871294503489
 30
0.0
 42
1.0
  0
VERTEX
  5
28D1A
  8
0
  6
BYBLOCK
 62
     0
 10
115.6924657950995936
 20
80.7671871294503489
 30
0.0
 42
1.0
  0
SEQEND
  5
28D1B
  8
0
  6
BYBLOCK
 62
     0
  0
LINE
  5
28B96
  8
0
  6
BYBLOCK
 62
     0
 10
115.3924657950995964
 20
80.7671871294503489
 30
0.0
 11
115.1924657950995936
 21
80.7671871294503489
 31
0.0
  0
TEXT
  5
28B97
  8
寸法
 62
     2
 10
105.6424657950995964
 20
78.6421871294503489
 30
0.0
 40
1.5
  1
164
  0
POLYLINE
  5
28B98
  8
0
  6
BYBLOCK
 62
     0
 66
     1
 10
0.0
 20
0.0
 30
0.0
 70
     1
 40
0.2
 41
0.2
  0
VERTEX
  5
28D1C
  8
0
  6
BYBLOCK
 62
     0
 10
75.6924657950995936
 20
76.1835706761560232
 30
0.0
 42
1.0
  0
VERTEX
  5
28D1D
  8
0
  6
BYBLOCK
 62
     0
 10
75.492465795099605
 20
76.1835706761560232
 30
0.0
 42
1.0
  0
SEQEND
  5
28D1E
  8
0
  6
BYBLOCK
 62
     0
  0
LINE
  5
28B99
  8
0
  6
BYBLOCK
 62
     0
 10
75.7924657950996021
 20
76.1835706761560232
 30
0.0
 11
75.992465795099605
 21
76.1835706761560232
 31
0.0
  0
POLYLINE
  5
28B9A
  8
0
  6
BYBLOCK
 62
     0
 66
     1
 10
0.0
 20
0.0
 30
0.0
 70
     1
 40
0.2
 41
0.2
  0
VERTEX
  5
28D1F
  8
0
  6
BYBLOCK
 62
     0
 10
115.492465795099605
 20
76.1835706761560232
 30
0.0
 42
1.0
  0
VERTEX
  5
28D20
  8
0
  6
BYBLOCK
 62
     0
 10
115.6924657950995936
 20
76.1835706761560232
 30
0.0
 42
1.0
  0
SEQEND
  5
28D21
  8
0
  6
BYBLOCK
 62
     0
  0
LINE
  5
28B9B
  8
0
  6
BYBLOCK
 62
     0
 10
115.3924657950995964
 20
76.1835706761560232
 30
0.0
 11
115.1924657950995936
 21
76.1835706761560232
 31
0.0
  0
TEXT
  5
28B9C
  8
寸法
 62
     2
 10
92.7924657950996021
 20
73.1585706761560175
 30
0.0
 40
2.399999999999999
  1
400
  0
VIEWPORT
  5
151C
 67
     1
  8
0
 10
147.7062377929686932
 20
162.771779720877305
 30
0.0
 40
378.6122112211220951
 41
329.6261089228632954
 68
     1
 69
     1
1001
ACAD
1000
MVIEW
1002
{
1070
    16
1010
0.0
1020
0.0
1030
0.0
1010
0.0
1020
0.0
1030
1.0
1040
0.0
1040
329.6261089228632954
1040
147.7062377929686932
1040
162.771779720877305
1040
50.0
1040
0.0
1040
0.0
1070
     0
1070
  1000
1070
     1
1070
     1
1070
     0
1070
     0
1070
     0
1070
     0
1040
0.0
1040
0.0
1040
0.0
1040
10.0
1040
10.0
1040
10.0
1040
10.0
1070
     0
1002
{
1002
}
1002
}
  0
VIEWPORT
  5
1520
 67
     1
  8
図面枠
 10
145.3515106439589886
 20
101.8539978265762045
 30
0.0
 40
232.5624170303345011
 41
162.9663965225219044
 68
     2
 69
     2
1001
ACAD
1000
MVIEW
1002
{
1070
    16
1010
0.0
1020
0.0
1030
0.0
1010
0.0
1020
0.0
1030
1.0
1040
0.0
1040
213.5492957746479021
1040
148.4954684853967137
1040
105.0
1040
50.0
1040
0.0
1040
0.0
1070
     0
1070
  1000
1070
     1
1070
     3
1070
     0
1070
     0
1070
     0
1070
     0
1040
0.0
1040
0.0
1040
0.0
1040
10.0
1040
10.0
1040
10.0
1040
10.0
1070
     0
1002
{
1002
}
1002
}
  0
ENDSEC
  0
EOF
