  0
SECTION
  2
HEADER
  9
$ACADVER
  1
AC1009
  9
$INSBASE
 10
0.0
 20
0.0
 30
0.0
  9
$EXTMIN
 10
1729.120123723181905
 20
839.2545808810118615
 30
0.0
  9
$EXTMAX
 10
2009.3442711793829858
 20
1031.0718005297001127
 30
0.0
  9
$LIMMIN
 10
0.0
 20
0.0
  9
$LIMMAX
 10
420.0
 20
297.0
  9
$ORTHOMODE
 70
     1
  9
$REGENMODE
 70
     1
  9
$FILLMODE
 70
     1
  9
$QTEXTMODE
 70
     0
  9
$MIRRTEXT
 70
     0
  9
$DRAGMODE
 70
     2
  9
$LTSCALE
 40
1.0
  9
$OSMODE
 70
  4095
  9
$ATTMODE
 70
     1
  9
$TEXTSIZE
 40
2.5
  9
$TRACEWID
 40
1.0
  9
$TEXTSTYLE
  7
STANDARD
  9
$CLAYER
  8
0
  9
$CELTYPE
  6
BYLAYER
  9
$CECOLOR
 62
   256
  9
$DIMSCALE
 40
1.0
  9
$DIMASZ
 40
2.5
  9
$DIMEXO
 40
0.625
  9
$DIMDLI
 40
3.75
  9
$DIMRND
 40
0.0
  9
$DIMDLE
 40
0.0
  9
$DIMEXE
 40
1.25
  9
$DIMTP
 40
0.0
  9
$DIMTM
 40
0.0
  9
$DIMTXT
 40
2.5
  9
$DIMCEN
 40
2.5
  9
$DIMTSZ
 40
0.0
  9
$DIMTOL
 70
     0
  9
$DIMLIM
 70
     0
  9
$DIMTIH
 70
     0
  9
$DIMTOH
 70
     0
  9
$DIMSE1
 70
     0
  9
$DIMSE2
 70
     0
  9
$DIMTAD
 70
     1
  9
$DIMZIN
 70
     8
  9
$DIMBLK
  1

  9
$DIMASO
 70
     1
  9
$DIMSHO
 70
     1
  9
$DIMPOST
  1

  9
$DIMAPOST
  1

  9
$DIMALT
 70
     0
  9
$DIMALTD
 70
     3
  9
$DIMALTF
 40
0.03937007874016
  9
$DIMLFAC
 40
1.0
  9
$DIMTOFL
 70
     1
  9
$DIMTVP
 40
0.0
  9
$DIMTIX
 70
     0
  9
$DIMSOXD
 70
     0
  9
$DIMSAH
 70
     0
  9
$DIMBLK1
  1

  9
$DIMBLK2
  1

  9
$DIMSTYLE
  2
ISO-25
  9
$DIMCLRD
 70
     0
  9
$DIMCLRE
 70
     0
  9
$DIMCLRT
 70
     0
  9
$DIMTFAC
 40
1.0
  9
$DIMGAP
 40
0.625
  9
$LUNITS
 70
     2
  9
$LUPREC
 70
     4
  9
$SKETCHINC
 40
1.0
  9
$FILLETRAD
 40
0.0
  9
$AUNITS
 70
     0
  9
$AUPREC
 70
     0
  9
$MENU
  1
.
  9
$ELEVATION
 40
0.0
  9
$PELEVATION
 40
0.0
  9
$THICKNESS
 40
0.0
  9
$LIMCHECK
 70
     0
  9
$BLIPMODE
 70
     0
  9
$CHAMFERA
 40
0.0
  9
$CHAMFERB
 40
0.0
  9
$SKPOLY
 70
     0
  9
$TDCREATE
 40
2460209.6393865752033889
  9
$TDUPDATE
 40
2460209.6540856491774321
  9
$TDINDWG
 40
0.0141782407
  9
$TDUSRTIMER
 40
0.0141782407
  9
$USRTIMER
 70
     1
  9
$ANGBASE
 50
0.0
  9
$ANGDIR
 70
     0
  9
$PDMODE
 70
     0
  9
$PDSIZE
 40
0.0
  9
$PLINEWID
 40
0.0
  9
$COORDS
 70
     1
  9
$SPLFRAME
 70
     0
  9
$SPLINETYPE
 70
     6
  9
$SPLINESEGS
 70
     8
  9
$ATTDIA
 70
     1
  9
$ATTREQ
 70
     1
  9
$HANDLING
 70
     1
  9
$HANDSEED
  5
C53
  9
$SURFTAB1
 70
     6
  9
$SURFTAB2
 70
     6
  9
$SURFTYPE
 70
     6
  9
$SURFU
 70
     6
  9
$SURFV
 70
     6
  9
$UCSNAME
  2

  9
$UCSORG
 10
0.0
 20
0.0
 30
0.0
  9
$UCSXDIR
 10
1.0
 20
0.0
 30
0.0
  9
$UCSYDIR
 10
0.0
 20
1.0
 30
0.0
  9
$PUCSNAME
  2

  9
$PUCSORG
 10
0.0
 20
0.0
 30
0.0
  9
$PUCSXDIR
 10
1.0
 20
0.0
 30
0.0
  9
$PUCSYDIR
 10
0.0
 20
1.0
 30
0.0
  9
$USERI1
 70
     0
  9
$USERI2
 70
     0
  9
$USERI3
 70
     0
  9
$USERI4
 70
     0
  9
$USERI5
 70
     0
  9
$USERR1
 40
0.0
  9
$USERR2
 40
0.0
  9
$USERR3
 40
0.0
  9
$USERR4
 40
0.0
  9
$USERR5
 40
0.0
  9
$WORLDVIEW
 70
     1
  9
$SHADEDGE
 70
     3
  9
$SHADEDIF
 70
    70
  9
$TILEMODE
 70
     1
  9
$MAXACTVP
 70
    64
  9
$PLIMCHECK
 70
     0
  9
$PEXTMIN
 10
0.0
 20
0.0
 30
0.0
  9
$PEXTMAX
 10
0.0
 20
0.0
 30
0.0
  9
$PLIMMIN
 10
0.0
 20
0.0
  9
$PLIMMAX
 10
12.0
 20
9.0
  9
$UNITMODE
 70
     0
  9
$VISRETAIN
 70
     1
  9
$PLINEGEN
 70
     0
  9
$PSLTSCALE
 70
     1
  0
ENDSEC
  0
SECTION
  2
TABLES
  0
TABLE
  2
VPORT
 70
     1
  0
VPORT
  2
*ACTIVE
 70
     0
 10
0.0
 20
0.0
 11
1.0
 21
1.0
 12
1999.1285828201509958
 22
931.3520979125331678
 13
0.0
 23
0.0
 14
10.0
 24
10.0
 15
10.0
 25
10.0
 16
0.0
 26
0.0
 36
1.0
 17
0.0
 27
0.0
 37
0.0
 40
321.1757595491845905
 41
1.93603744149766
 42
50.0
 43
0.0
 44
0.0
 50
0.0
 51
0.0
 71
     0
 72
  1000
 73
     1
 74
     3
 75
     0
 76
     0
 77
     0
 78
     0
  0
ENDTAB
  0
TABLE
  2
LTYPE
 70
     1
  0
LTYPE
  2
CONTINUOUS
 70
     0
  3
Solid line
 72
    65
 73
     0
 40
0.0
  0
ENDTAB
  0
TABLE
  2
LAYER
 70
    12
  0
LAYER
  2
0
 70
     0
 62
     7
  6
CONTINUOUS
  0
LAYER
  2
枠ライン
 70
     0
 62
     1
  6
CONTINUOUS
  0
LAYER
  2
枠文字
 70
     0
 62
     4
  6
CONTINUOUS
  0
LAYER
  2
本体１
 70
     0
 62
     7
  6
CONTINUOUS
  0
LAYER
  2
寸法
 70
     0
 62
     2
  6
CONTINUOUS
  0
LAYER
  2
壁
 70
     0
 62
     6
  6
CONTINUOUS
  0
LAYER
  2
注釈
 70
     0
 62
     2
  6
CONTINUOUS
  0
LAYER
  2
枠横ライン
 70
     0
 62
     9
  6
CONTINUOUS
  0
LAYER
  2
DEFPOINTS
 70
     0
 62
     7
  6
CONTINUOUS
  0
LAYER
  2
DIM
 70
     0
 62
     2
  6
CONTINUOUS
  0
LAYER
  2
LAYER_1
 70
     0
 62
     7
  6
CONTINUOUS
  0
LAYER
  2
本体1
 70
     0
 62
     7
  6
CONTINUOUS
  0
ENDTAB
  0
TABLE
  2
STYLE
 70
     3
  0
STYLE
  2
STANDARD
 70
     0
 40
0.0
 41
1.0
 50
0.0
 71
     0
 42
2.5
  3
txt
  4

  0
STYLE
  2
ANNOTATIVE
 70
     0
 40
0.0
 41
1.0
 50
0.0
 71
     0
 42
2.5
  3
txt
  4

  0
STYLE
  2
EXTFONT
 70
     0
 40
3.0
 41
1.0
 50
0.0
 71
     0
 42
3.0
  3
txt
  4
C:\ACLTWIN3.1\extfont
  0
ENDTAB
  0
TABLE
  2
VIEW
 70
     0
  0
ENDTAB
  0
TABLE
  2
UCS
 70
     0
  0
ENDTAB
  0
TABLE
  2
APPID
 70
    10
  0
APPID
  2
ACAD
 70
     0
  0
APPID
  2
ACAD_PSEXT
 70
     0
  0
APPID
  2
ACADANNOPO
 70
     0
  0
APPID
  2
ACADANNOTATIVE
 70
     0
  0
APPID
  2
ACAD_DSTYLE_DIMJAG
 70
     0
  0
APPID
  2
ACAD_DSTYLE_DIMTALN
 70
     0
  0
APPID
  2
ACAD_MLEADERVER
 70
     0
  0
APPID
  2
ACAD_NAV_VCDISPLAY
 70
     0
  0
APPID
  2
ACAD_TC
 70
     0
  0
APPID
  2
ACAD_EXEMPT_FROM_CAD_STANDARDS
 70
     0
  0
ENDTAB
  0
TABLE
  2
DIMSTYLE
 70
     5
  0
DIMSTYLE
  2
STANDARD
 70
     0
  3

  4

  5

  6

  7

 40
1.0
 41
0.18
 42
0.0625
 43
0.38
 44
0.18
 45
0.0
 46
0.0
 47
0.0
 48
0.0
140
0.18
141
0.09
142
0.0
143
25.3999999999999986
144
1.0
145
0.0
146
1.0
147
0.09
 71
     0
 72
     0
 73
     1
 74
     1
 75
     0
 76
     0
 77
     0
 78
     0
170
     0
171
     2
172
     0
173
     0
174
     0
175
     0
176
     0
177
     0
178
     0
  0
DIMSTYLE
  2
ANNOTATIVE
 70
     0
  3

  4

  5

  6

  7

 40
0.0
 41
2.5
 42
0.625
 43
3.75
 44
1.25
 45
0.0
 46
0.0
 47
0.0
 48
0.0
140
2.5
141
2.5
142
0.0
143
0.03937007874016
144
1.0
145
0.0
146
1.0
147
0.625
 71
     0
 72
     0
 73
     0
 74
     0
 75
     0
 76
     0
 77
     1
 78
     8
170
     0
171
     3
172
     1
173
     0
174
     0
175
     0
176
     0
177
     0
178
     0
  0
DIMSTYLE
  2
ISO-25
 70
     0
  3

  4

  5

  6

  7

 40
1.0
 41
2.5
 42
0.625
 43
3.75
 44
1.25
 45
0.0
 46
0.0
 47
0.0
 48
0.0
140
2.5
141
2.5
142
0.0
143
0.03937007874016
144
1.0
145
0.0
146
1.0
147
0.625
 71
     0
 72
     0
 73
     0
 74
     0
 75
     0
 76
     0
 77
     1
 78
     8
170
     0
171
     3
172
     1
173
     0
174
     0
175
     0
176
     0
177
     0
178
     0
  0
DIMSTYLE
  2
KITEI-1$7
 70
     0
  3

  4

  5

  6
DOT
  7
DOT
 40
1.0
 41
0.5
 42
1.0
 43
0.38
 44
0.0
 45
1.0
 46
0.0
 47
0.0
 48
0.0
140
2.399999999999999
141
0.09
142
0.0
143
25.3999999999999986
144
1.0
145
0.0
146
1.0
147
0.7
 71
     0
 72
     0
 73
     0
 74
     0
 75
     0
 76
     0
 77
     2
 78
     0
170
     0
171
     2
172
     0
173
     1
174
     0
175
     0
176
     2
177
     2
178
     2
  0
DIMSTYLE
  2
STANDARD$0
 70
     0
  3

  4

  5

  6
DOT
  7
DOT
 40
1.0
 41
0.4
 42
2.0
 43
3.75
 44
0.0
 45
0.0
 46
0.0
 47
0.0
 48
0.0
140
2.399999999999999
141
2.5
142
0.0
143
0.03937
144
1.0
145
0.0
146
1.0
147
0.625
 71
     0
 72
     0
 73
     0
 74
     0
 75
     0
 76
     0
 77
     3
 78
     0
170
     0
171
     2
172
     0
173
     1
174
     0
175
     0
176
     2
177
     2
178
     2
  0
ENDTAB
  0
ENDSEC
  0
SECTION
  2
BLOCKS
  0
BLOCK
  8
0
  2
$MODEL_SPACE
 70
     0
 10
0.0
 20
0.0
 30
0.0
  3
$MODEL_SPACE
  1

  0
ENDBLK
  5
21
  8
0
  0
BLOCK
 67
     1
  8
0
  2
$PAPER_SPACE
 70
     0
 10
0.0
 20
0.0
 30
0.0
  3
$PAPER_SPACE
  1

  0
ENDBLK
  5
D5
 67
     1
  8
0
  0
BLOCK
  8
0
  2
_DOT
 70
     0
 10
0.0
 20
0.0
 30
0.0
  3
_DOT
  1

  0
POLYLINE
  5
2A6
  8
0
  6
BYBLOCK
 62
     0
 66
     1
 10
0.0
 20
0.0
 30
0.0
 70
     1
 40
0.5
 41
0.5
  0
VERTEX
  5
BE4
  8
0
  6
BYBLOCK
 62
     0
 10
-0.25
 20
0.0
 30
0.0
 42
1.0
  0
VERTEX
  5
BE5
  8
0
  6
BYBLOCK
 62
     0
 10
0.25
 20
0.0
 30
0.0
 42
1.0
  0
SEQEND
  5
BE6
  8
0
  6
BYBLOCK
 62
     0
  0
LINE
  5
2A7
  8
0
  6
BYBLOCK
 62
     0
 10
-0.5
 20
0.0
 30
0.0
 11
-1.0
 21
0.0
 31
0.0
  0
ENDBLK
  5
2A8
  8
0
  0
BLOCK
  8
0
  2
*D10
 70
     1
 10
0.0
 20
0.0
 30
0.0
  3
*D10
  1

  0
LINE
  5
9D7
  8
寸法
 62
     2
 10
1944.3000428906600519
 20
864.8620067217651695
 30
0.0
 11
1944.3000428906600519
 21
859.8620067217651695
 31
0.0
  0
LINE
  5
9D8
  8
寸法
 62
     2
 10
1941.8000428906600519
 20
864.8873907558962628
 30
0.0
 11
1941.8000428906600519
 21
859.8620067217651695
 31
0.0
  0
LINE
  5
9D9
  8
寸法
 62
     2
 10
1945.1000428906600064
 20
859.8620067217651695
 30
0.0
 11
1945.9000428906599609
 21
859.8620067217651695
 31
0.0
  0
LINE
  5
9DA
  8
寸法
 62
     2
 10
1941.0000428906600973
 20
859.8620067217651695
 30
0.0
 11
1936.9500428906599154
 21
859.8620067217651695
 31
0.0
  0
INSERT
  5
9DB
  8
寸法
 62
     2
  2
_DOT
 10
1944.3000428906600519
 20
859.8620067217651695
 30
0.0
 41
0.8
 42
0.8
 43
0.8
 50
180.0
  0
INSERT
  5
9DC
  8
寸法
 62
     2
  2
_DOT
 10
1941.8000428906600519
 20
859.8620067217651695
 30
0.0
 41
0.8
 42
0.8
 43
0.8
  0
INSERT
  5
9DD
  8
0
  2
*U24
 10
0.0
 20
0.0
 30
0.0
  0
POINT
  5
9DE
  8
DEFPOINTS
 62
     0
 10
1944.3000428906600519
 20
866.8620067217651695
 30
0.0
  0
POINT
  5
9DF
  8
DEFPOINTS
 62
     0
 10
1941.8000428906600519
 20
866.8873907558963765
 30
0.0
  0
POINT
  5
9E0
  8
DEFPOINTS
 62
     0
 10
1941.8000428906600519
 20
859.8620067217651695
 30
0.0
  0
ENDBLK
  5
442
  8
0
  0
BLOCK
  8
0
  2
*D11
 70
     1
 10
0.0
 20
0.0
 30
0.0
  3
*D11
  1

  0
LINE
  5
9E1
  8
寸法
 62
     2
 10
1939.8000428906609613
 20
866.8873907558968313
 30
0.0
 11
1935.8000428906700563
 21
866.8873907558968313
 31
0.0
  0
LINE
  5
9E2
  8
寸法
 62
     2
 10
1940.8000428906609613
 20
926.8873907558967176
 30
0.0
 11
1935.8000428906700563
 21
926.8873907558967176
 31
0.0
  0
LINE
  5
9E3
  8
寸法
 62
     2
 10
1935.8000428906700563
 20
867.6873907558967858
 30
0.0
 11
1935.8000428906700563
 21
926.087390755896763
 31
0.0
  0
INSERT
  5
9E4
  8
寸法
 62
     2
  2
_DOT
 10
1935.8000428906700563
 20
866.8873907558968313
 30
0.0
 41
0.8
 42
0.8
 43
0.8
 50
270.0
  0
INSERT
  5
9E5
  8
寸法
 62
     2
  2
_DOT
 10
1935.8000428906700563
 20
926.8873907558967176
 30
0.0
 41
0.8
 42
0.8
 43
0.8
 50
90.0
  0
INSERT
  5
9E6
  8
0
  2
*U25
 10
0.0
 20
0.0
 30
0.0
  0
POINT
  5
9E7
  8
DEFPOINTS
 62
     0
 10
1941.8000428906609613
 20
866.8873907558968313
 30
0.0
  0
POINT
  5
9E8
  8
DEFPOINTS
 62
     0
 10
1942.8000428906609613
 20
926.8873907558967176
 30
0.0
  0
POINT
  5
9E9
  8
DEFPOINTS
 62
     0
 10
1935.8000428906700563
 20
926.8873907558967176
 30
0.0
  0
ENDBLK
  5
44F
  8
0
  0
BLOCK
  8
0
  2
*D12
 70
     1
 10
0.0
 20
0.0
 30
0.0
  3
*D12
  1

  0
LINE
  5
9EA
  8
寸法
 62
     2
 10
1749.9461600602610361
 20
866.8873907558968313
 30
0.0
 11
1742.394141623645055
 21
866.8873907558968313
 31
0.0
  0
LINE
  5
9EB
  8
寸法
 62
     2
 10
1749.9461600602610361
 20
926.8873907558967176
 30
0.0
 11
1742.394141623645055
 21
926.8873907558967176
 31
0.0
  0
LINE
  5
9EC
  8
寸法
 62
     2
 10
1742.394141623645055
 20
867.2873907558966948
 30
0.0
 11
1742.394141623645055
 21
926.487390755896854
 31
0.0
  0
INSERT
  5
9ED
  8
寸法
 62
     2
  2
_DOT
 10
1742.394141623645055
 20
866.8873907558968313
 30
0.0
 41
0.4
 42
0.4
 43
0.4
 50
270.0
  0
INSERT
  5
9EE
  8
寸法
 62
     2
  2
_DOT
 10
1742.394141623645055
 20
926.8873907558967176
 30
0.0
 41
0.4
 42
0.4
 43
0.4
 50
90.0
  0
INSERT
  5
9EF
  8
0
  2
*U26
 10
0.0
 20
0.0
 30
0.0
  0
POINT
  5
9F0
  8
DEFPOINTS
 62
     0
 10
1751.9461600602610361
 20
866.8873907558968313
 30
0.0
  0
POINT
  5
9F1
  8
DEFPOINTS
 62
     0
 10
1751.9461600602610361
 20
926.8873907558967176
 30
0.0
  0
POINT
  5
9F2
  8
DEFPOINTS
 62
     0
 10
1742.394141623645055
 20
926.8873907558967176
 30
0.0
  0
ENDBLK
  5
73C
  8
0
  0
BLOCK
  8
0
  2
*D13
 70
     1
 10
0.0
 20
0.0
 30
0.0
  3
*D13
  1

  0
LINE
  5
9F3
  8
寸法
 62
     2
 10
1749.9420315128579659
 20
954.6043332196345546
 30
0.0
 11
1742.3900130762410754
 21
954.6043332196345546
 31
0.0
  0
LINE
  5
9F4
  8
寸法
 62
     2
 10
1749.9420315128579659
 20
1014.6043332196350093
 30
0.0
 11
1742.3900130762410754
 21
1014.6043332196350093
 31
0.0
  0
LINE
  5
9F5
  8
寸法
 62
     2
 10
1742.3900130762410754
 20
955.0043332196346455
 30
0.0
 11
1742.3900130762410754
 21
1014.204333219635032
 31
0.0
  0
INSERT
  5
9F6
  8
寸法
 62
     2
  2
_DOT
 10
1742.3900130762410754
 20
954.6043332196345546
 30
0.0
 41
0.4
 42
0.4
 43
0.4
 50
270.0
  0
INSERT
  5
9F7
  8
寸法
 62
     2
  2
_DOT
 10
1742.3900130762410754
 20
1014.6043332196350093
 30
0.0
 41
0.4
 42
0.4
 43
0.4
 50
90.0
  0
INSERT
  5
9F8
  8
0
  2
*U27
 10
0.0
 20
0.0
 30
0.0
  0
POINT
  5
9F9
  8
DEFPOINTS
 62
     0
 10
1751.9420315128579659
 20
954.6043332196345546
 30
0.0
  0
POINT
  5
9FA
  8
DEFPOINTS
 62
     0
 10
1751.9420315128579659
 20
1014.6043332196350093
 30
0.0
  0
POINT
  5
9FB
  8
DEFPOINTS
 62
     0
 10
1742.3900130762410754
 20
1014.6043332196350093
 30
0.0
  0
ENDBLK
  5
85B
  8
0
  0
BLOCK
  8
0
  2
*D14
 70
     1
 10
0.0
 20
0.0
 30
0.0
  3
*D14
  1

  0
LINE
  5
9FC
  8
寸法
 62
     2
 10
1944.3000428906600519
 20
952.7176639949432229
 30
0.0
 11
1944.3000428906600519
 21
947.7176639949432229
 31
0.0
  0
LINE
  5
9FD
  8
寸法
 62
     2
 10
1941.8000428906600519
 20
952.7430480290743162
 30
0.0
 11
1941.8000428906600519
 21
947.7176639949432229
 31
0.0
  0
LINE
  5
9FE
  8
寸法
 62
     2
 10
1945.1000428906609159
 20
947.7176639949432229
 30
0.0
 11
1945.9000428906599609
 21
947.7176639949432229
 31
0.0
  0
LINE
  5
9FF
  8
寸法
 62
     2
 10
1941.0000428906600973
 20
947.7176639949432229
 30
0.0
 11
1936.9500428906599154
 21
947.7176639949432229
 31
0.0
  0
INSERT
  5
A00
  8
寸法
 62
     2
  2
_DOT
 10
1944.3000428906600519
 20
947.7176639949432229
 30
0.0
 41
0.8
 42
0.8
 43
0.8
 50
180.0
  0
INSERT
  5
A01
  8
寸法
 62
     2
  2
_DOT
 10
1941.8000428906600519
 20
947.7176639949432229
 30
0.0
 41
0.8
 42
0.8
 43
0.8
  0
INSERT
  5
A02
  8
0
  2
*U28
 10
0.0
 20
0.0
 30
0.0
  0
POINT
  5
A03
  8
DEFPOINTS
 62
     0
 10
1944.3000428906600519
 20
954.7176639949432229
 30
0.0
  0
POINT
  5
A04
  8
DEFPOINTS
 62
     0
 10
1941.8000428906600519
 20
954.7430480290742025
 30
0.0
  0
POINT
  5
A05
  8
DEFPOINTS
 62
     0
 10
1941.8000428906600519
 20
947.7176639949432229
 30
0.0
  0
ENDBLK
  5
8D3
  8
0
  0
BLOCK
  8
0
  2
*D15
 70
     1
 10
0.0
 20
0.0
 30
0.0
  3
*D15
  1

  0
LINE
  5
A06
  8
寸法
 62
     2
 10
1939.8000428906609613
 20
954.7430480290746573
 30
0.0
 11
1935.8000428906709658
 21
954.7430480290746573
 31
0.0
  0
LINE
  5
A07
  8
寸法
 62
     2
 10
1940.8000428906609613
 20
1014.7430480290749983
 30
0.0
 11
1935.8000428906709658
 21
1014.7430480290749983
 31
0.0
  0
LINE
  5
A08
  8
寸法
 62
     2
 10
1935.8000428906709658
 20
955.5430480290747255
 30
0.0
 11
1935.8000428906709658
 21
1013.9430480290750438
 31
0.0
  0
INSERT
  5
A09
  8
寸法
 62
     2
  2
_DOT
 10
1935.8000428906709658
 20
954.7430480290746573
 30
0.0
 41
0.8
 42
0.8
 43
0.8
 50
270.0
  0
INSERT
  5
A0A
  8
寸法
 62
     2
  2
_DOT
 10
1935.8000428906709658
 20
1014.7430480290749983
 30
0.0
 41
0.8
 42
0.8
 43
0.8
 50
90.0
  0
INSERT
  5
A0B
  8
0
  2
*U29
 10
0.0
 20
0.0
 30
0.0
  0
POINT
  5
A0C
  8
DEFPOINTS
 62
     0
 10
1941.8000428906609613
 20
954.7430480290746573
 30
0.0
  0
POINT
  5
A0D
  8
DEFPOINTS
 62
     0
 10
1942.8000428906609613
 20
1014.7430480290749983
 30
0.0
  0
POINT
  5
A0E
  8
DEFPOINTS
 62
     0
 10
1935.8000428906709658
 20
1014.7430480290749983
 30
0.0
  0
ENDBLK
  5
8E0
  8
0
  0
BLOCK
  8
0
  2
*U16
 70
     1
 10
0.0
 20
0.0
 30
0.0
  3
*U16
  1

  0
TEXT
  5
BE8
  8
本体1
 62
     2
 10
38.0823539579371015
 20
103.928262324976302
 30
0.0
 40
2.399999999999999
  1
200
 50
90.0
  0
ENDBLK
  5
BEA
  8
0
  0
BLOCK
  8
0
  2
*U17
 70
     1
 10
0.0
 20
0.0
 30
0.0
  3
*U17
  1

  0
TEXT
  5
BEC
  8
本体1
 62
     2
 10
83.3592293361157175
 20
48.3521954797525098
 30
0.0
 40
2.399999999999999
  1
150
  0
ENDBLK
  5
BEE
  8
0
  0
BLOCK
  8
0
  2
*U18
 70
     1
 10
0.0
 20
0.0
 30
0.0
  3
*U18
  1

  0
TEXT
  5
BF0
  8
本体１
 62
     2
 10
129.7587380322410127
 20
50.5650744231634235
 30
0.0
 40
2.399999999999999
  1
R5
 50
315.082863752330411
  0
ENDBLK
  5
BF2
  8
0
  0
BLOCK
  8
0
  2
*U19
 70
     1
 10
0.0
 20
0.0
 30
0.0
  3
*U19
  1

  0
TEXT
  5
BF4
  8
寸法
 62
     2
 10
203.5110209818926137
 20
50.3191559129709418
 30
0.0
 40
3.0
  1
3
  7
EXTFONT
  0
ENDBLK
  5
BF6
  8
0
  0
BLOCK
  8
0
  2
*U20
 70
     1
 10
0.0
 20
0.0
 30
0.0
  3
*U20
  1

  0
TEXT
  5
BF8
  8
寸法
 62
     2
 10
200.1110209818928922
 20
103.1941559129708992
 30
0.0
 40
3.0
  1
200
 50
90.0
  7
EXTFONT
  0
ENDBLK
  5
BFA
  8
0
  0
BLOCK
  8
0
  2
*U21
 70
     1
 10
0.0
 20
0.0
 30
0.0
  3
*U21
  1

  0
TEXT
  5
C00
  8
本体1
 62
     2
 10
1818.2090267769790444
 20
1073.3884546858660087
 30
0.0
 40
2.399999999999999
  1
150
  0
ENDBLK
  5
C02
  8
0
  0
BLOCK
  8
0
  2
*U22
 70
     1
 10
0.0
 20
0.0
 30
0.0
  3
*U22
  1

  0
TEXT
  5
C04
  8
本体１
 62
     2
 10
1864.62298465575509
 20
1075.5904494960821012
 30
0.0
 40
2.399999999999999
  1
R5
 50
315.0828637523320026
  0
ENDBLK
  5
C06
  8
0
  0
BLOCK
  8
0
  2
*U23
 70
     1
 10
0.0
 20
0.0
 30
0.0
  3
*U23
  1

  0
TEXT
  5
C08
  8
寸法
 62
     2
 10
1772.9067762282679723
 20
1128.8057220767921081
 30
0.0
 40
2.399999999999999
  1
100
 50
90.0
  0
ENDBLK
  5
C0A
  8
0
  0
BLOCK
  8
0
  2
*U24
 70
     1
 10
0.0
 20
0.0
 30
0.0
  3
*U24
  1

  0
TEXT
  5
C0C
  8
寸法
 62
     2
 10
1937.5750428906599154
 20
860.4870067217652831
 30
0.0
 40
3.0
  1
5
  7
EXTFONT
  0
ENDBLK
  5
C0E
  8
0
  0
BLOCK
  8
0
  2
*U25
 70
     1
 10
0.0
 20
0.0
 30
0.0
  3
*U25
  1

  0
TEXT
  5
C10
  8
寸法
 62
     2
 10
1935.1750428906689194
 20
893.6373907558960354
 30
0.0
 40
3.0
  1
120
 50
90.0
  7
EXTFONT
  0
ENDBLK
  5
C12
  8
0
  0
BLOCK
  8
0
  2
*U26
 70
     1
 10
0.0
 20
0.0
 30
0.0
  3
*U26
  1

  0
TEXT
  5
C14
  8
寸法
 62
     2
 10
1741.7233026059100212
 20
893.9880728841363862
 30
0.0
 40
2.399999999999999
  1
120
 50
90.0
  0
ENDBLK
  5
C16
  8
0
  0
BLOCK
  8
0
  2
*U27
 70
     1
 10
0.0
 20
0.0
 30
0.0
  3
*U27
  1

  0
TEXT
  5
C18
  8
寸法
 62
     2
 10
1741.7191740585060415
 20
981.7050153478742232
 30
0.0
 40
2.399999999999999
  1
120
 50
90.0
  0
ENDBLK
  5
C1A
  8
0
  0
BLOCK
  8
0
  2
*U28
 70
     1
 10
0.0
 20
0.0
 30
0.0
  3
*U28
  1

  0
TEXT
  5
C1C
  8
寸法
 62
     2
 10
1937.5750428906599154
 20
948.3426639949431092
 30
0.0
 40
3.0
  1
5
  7
EXTFONT
  0
ENDBLK
  5
C1E
  8
0
  0
BLOCK
  8
0
  2
*U29
 70
     1
 10
0.0
 20
0.0
 30
0.0
  3
*U29
  1

  0
TEXT
  5
C20
  8
寸法
 62
     2
 10
1935.1750428906709658
 20
981.4930480290738615
 30
0.0
 40
3.0
  1
120
 50
90.0
  7
EXTFONT
  0
ENDBLK
  5
C22
  8
0
  0
ENDSEC
  0
SECTION
  2
ENTITIES
  0
LINE
  5
393
  8
枠横ライン
 10
2009.3442680666169053
 20
1031.0718005297001127
 30
0.0
 11
2009.3442711793829858
 21
839.2545808810118615
 31
0.0
  0
LINE
  5
394
  8
枠横ライン
 10
1729.1201299487140659
 20
839.2549808810161949
 30
0.0
 11
1729.1201299487140659
 21
1031.0718005297001127
 31
0.0
  0
LINE
  5
395
  8
枠横ライン
 10
1729.1201299487140659
 20
839.2549808810161949
 30
0.0
 11
2009.3442680666169053
 21
839.2545808810162953
 31
0.0
  0
LINE
  5
396
  8
枠横ライン
 10
2009.3442680666169053
 20
1031.0718005297001127
 30
0.0
 11
1729.1201299487140659
 21
1031.0718005297001127
 31
0.0
  0
LINE
  5
397
  8
枠横ライン
 10
2009.3442618410840623
 20
851.9363455388263446
 30
0.0
 11
1729.120123723181905
 21
851.9367455388263579
 31
0.0
  0
LINE
  5
398
  8
枠ライン
 10
1923.6255750022380653
 20
845.5957648447871406
 30
0.0
 11
1866.9415547552800945
 21
845.5957648447871406
 31
0.0
  0
TEXT
  5
399
  8
枠文字
 10
1801.2202498391930021
 20
841.8910431641781997
 30
0.0
 40
1.686729999999999
  1
図
 72
     1
 11
1802.3828969503811095
 21
841.8910431641781997
 31
0.0
  0
LINE
  5
39A
  8
枠ライン
 10
1800.8828969503799726
 20
839.255380881024962
 30
0.0
 11
1800.8828969503799726
 21
851.9366431025785005
 31
0.0
  0
LINE
  5
39B
  8
枠ライン
 10
1800.8828969503799726
 20
851.9366431025785005
 30
0.0
 11
1800.8828969503799726
 21
839.255380881024962
 31
0.0
  0
LINE
  5
39C
  8
枠ライン
 10
1800.8828969503799726
 20
839.2549808810250624
 30
0.0
 11
1800.8828969503799726
 21
851.9366431025785005
 31
0.0
  0
LINE
  5
39D
  8
枠ライン
 10
1800.8828969503799726
 20
851.9366431025785005
 30
0.0
 11
1800.8828969503799726
 21
839.2549808810250624
 31
0.0
  0
LINE
  5
39E
  8
枠ライン
 10
1803.8829969503799475
 20
839.2549808810250624
 30
0.0
 11
1803.8829969503799475
 21
851.9366388201494829
 31
0.0
  0
LINE
  5
39F
  8
枠ライン
 10
1803.8829969503799475
 20
851.9366388201494829
 30
0.0
 11
1803.8829969503799475
 21
839.2549808810250624
 31
0.0
  0
LINE
  5
3A0
  8
枠ライン
 10
1790.8827569503800987
 20
839.255380881024962
 30
0.0
 11
1790.8827569503800987
 21
851.9366573770662399
 31
0.0
  0
LINE
  5
3A1
  8
枠ライン
 10
1729.1201276117610632
 20
843.4824431025729154
 30
0.0
 11
1800.8829008389600403
 21
843.4824431025729154
 31
0.0
  0
ARC
  5
3A2
  8
枠文字
 10
1738.5959632003389288
 20
841.6536233468532373
 30
0.0
 40
0.150643
 50
268.8480000000075734
 51
315.1879999999956112
  0
ARC
  5
3A3
  8
枠文字
 10
1738.5901632003390205
 20
841.6600233468532224
 30
0.0
 40
0.157019
 50
225.7909999999988031
 51
271.0309999999975048
  0
LINE
  5
3A4
  8
枠文字
 10
1738.5929632003389997
 20
841.8162233468532349
 30
0.0
 11
1738.7028632003389248
 21
841.7697233468531977
 31
0.0
  0
ARC
  5
3A5
  8
枠文字
 10
1738.585863200338963
 20
841.6632233468531012
 30
0.0
 40
0.149708
 50
134.654000000004288
 51
181.4349999999957106
  0
LINE
  5
3A6
  8
枠文字
 10
1738.480663200338995
 20
841.7697233468531977
 30
0.0
 11
1738.5929632003389997
 21
841.8162233468532349
 31
0.0
  0
ARC
  5
3A7
  8
枠文字
 10
1738.6020632003389892
 20
841.6620233468530614
 30
0.0
 40
0.147524
 50
359.0109999999964998
 51
46.8890000000010332
  0
ARC
  5
3A8
  8
枠文字
 10
1738.5960632003389037
 20
841.6577233468531176
 30
0.0
 40
0.153466
 50
314.0869999999918036
 51
0.647999999999022
  0
ARC
  5
3A9
  8
枠文字
 10
1738.5927632003390499
 20
841.6568233468533435
 30
0.0
 40
0.156603
 50
179.0289999999997121
 51
224.2689999999969075
  0
ARC
  5
3AA
  8
枠文字
 10
1738.602663200339066
 20
840.825023346853186
 30
0.0
 40
0.146891
 50
313.002000000000919
 51
1.0990000000005979
  0
ARC
  5
3AB
  8
枠文字
 10
1738.5871632003390914
 20
840.8246233468532864
 30
0.0
 40
0.151049
 50
178.7850000000038051
 51
225.1259999999946047
  0
ARC
  5
3AC
  8
枠文字
 10
1738.595763200338979
 20
840.8174233468531611
 30
0.0
 40
0.14642
 50
268.8889999999972247
 51
316.9870000000033201
  0
ARC
  5
3AD
  8
枠文字
 10
1738.5908632003390721
 20
840.8248233468532362
 30
0.0
 40
0.153785
 50
224.2249999999997101
 51
270.7849999999988881
  0
LINE
  5
3AE
  8
枠文字
 10
1738.480663200338995
 20
840.937723346853204
 30
0.0
 11
1738.5929632003389997
 21
840.9842233468532413
 31
0.0
  0
LINE
  5
3AF
  8
枠文字
 10
1738.5929632003389997
 20
840.9842233468532413
 30
0.0
 11
1738.7028632003389248
 21
840.937723346853204
 31
0.0
  0
ARC
  5
3B0
  8
枠文字
 10
1738.5854632003390634
 20
840.8314233468531711
 30
0.0
 40
0.149305
 50
134.5919999999997003
 51
181.3719999999993888
  0
ARC
  5
3B1
  8
枠文字
 10
1738.6030632003389655
 20
840.8304233468531947
 30
0.0
 40
0.146502
 50
358.9650000000006003
 51
47.0629999999987731
  0
LINE
  5
3B2
  8
枠ライン
 10
1729.1201276117610632
 20
847.7095431025728658
 30
0.0
 11
1800.8829008389600403
 21
847.7095431025728658
 31
0.0
  0
ARC
  5
3B3
  8
枠文字
 10
1738.5927632003390499
 20
845.8842855684010829
 30
0.0
 40
0.156603
 50
179.0289999999997121
 51
224.2689999999969075
  0
ARC
  5
3B4
  8
枠文字
 10
1738.5901632003390205
 20
845.8874855684009617
 30
0.0
 40
0.157019
 50
225.7909999999988031
 51
271.0309999999975048
  0
ARC
  5
3B5
  8
枠文字
 10
1738.5959632003389288
 20
845.8810855684009766
 30
0.0
 40
0.150643
 50
268.8480000000075734
 51
315.1879999999956112
  0
ARC
  5
3B6
  8
枠文字
 10
1738.5960632003389037
 20
845.8851855684010843
 30
0.0
 40
0.153466
 50
314.0869999999918036
 51
0.647999999999022
  0
ARC
  5
3B7
  8
枠文字
 10
1738.6020632003389892
 20
845.8894855684009144
 30
0.0
 40
0.147524
 50
359.0109999999964998
 51
46.8890000000010332
  0
LINE
  5
3B8
  8
枠文字
 10
1738.480663200338995
 20
845.9971855684010507
 30
0.0
 11
1738.5929632003389997
 21
846.0436855684009743
 31
0.0
  0
ARC
  5
3B9
  8
枠文字
 10
1738.585863200338963
 20
845.8906855684010679
 30
0.0
 40
0.149708
 50
134.654000000004288
 51
181.4349999999957106
  0
LINE
  5
3BA
  8
枠文字
 10
1738.5929632003389997
 20
846.0436855684009743
 30
0.0
 11
1738.7028632003389248
 21
845.9971855684010507
 31
0.0
  0
ARC
  5
3BB
  8
枠文字
 10
1738.6030632003389655
 20
845.0578855684009341
 30
0.0
 40
0.146502
 50
358.9650000000006003
 51
47.0629999999987731
  0
ARC
  5
3BC
  8
枠文字
 10
1738.5854632003390634
 20
845.0588855684010241
 30
0.0
 40
0.149305
 50
134.5919999999997003
 51
181.3719999999993888
  0
ARC
  5
3BD
  8
枠文字
 10
1738.5871632003390914
 20
845.0520855684009121
 30
0.0
 40
0.151049
 50
178.7850000000038051
 51
225.1259999999946047
  0
ARC
  5
3BE
  8
枠文字
 10
1738.5908632003390721
 20
845.0522855684009755
 30
0.0
 40
0.153785
 50
224.2249999999997101
 51
270.7849999999988881
  0
ARC
  5
3BF
  8
枠文字
 10
1738.595763200338979
 20
845.0448855684010141
 30
0.0
 40
0.14642
 50
268.8889999999972247
 51
316.9870000000033201
  0
ARC
  5
3C0
  8
枠文字
 10
1738.602663200339066
 20
845.052485568401039
 30
0.0
 40
0.146891
 50
313.002000000000919
 51
1.0990000000005979
  0
LINE
  5
3C1
  8
枠文字
 10
1738.5929632003389997
 20
845.2116855684008669
 30
0.0
 11
1738.7028632003389248
 21
845.1651855684009433
 31
0.0
  0
LINE
  5
3C2
  8
枠文字
 10
1738.480663200338995
 20
845.1651855684009433
 30
0.0
 11
1738.5929632003389997
 21
845.2116855684008669
 31
0.0
  0
LINE
  5
3C3
  8
枠文字
 10
1738.480663200338995
 20
849.3922855684010074
 30
0.0
 11
1738.5929632003389997
 21
849.4387855684010447
 31
0.0
  0
LINE
  5
3C4
  8
枠文字
 10
1738.5929632003389997
 20
849.4387855684010447
 30
0.0
 11
1738.7028632003389248
 21
849.3922855684010074
 31
0.0
  0
ARC
  5
3C5
  8
枠文字
 10
1738.602663200339066
 20
849.2795855684008757
 30
0.0
 40
0.146891
 50
313.002000000000919
 51
1.0990000000005979
  0
ARC
  5
3C6
  8
枠文字
 10
1738.595763200338979
 20
849.2719855684010781
 30
0.0
 40
0.14642
 50
268.8889999999972247
 51
316.9870000000033201
  0
ARC
  5
3C7
  8
枠文字
 10
1738.5908632003390721
 20
849.2793855684009259
 30
0.0
 40
0.153785
 50
224.2249999999997101
 51
270.7849999999988881
  0
ARC
  5
3C8
  8
枠文字
 10
1738.5871632003390914
 20
849.2791855684010898
 30
0.0
 40
0.151049
 50
178.7850000000038051
 51
225.1259999999946047
  0
ARC
  5
3C9
  8
枠文字
 10
1738.5854632003390634
 20
849.2859855684009744
 30
0.0
 40
0.149305
 50
134.5919999999997003
 51
181.3719999999993888
  0
ARC
  5
3CA
  8
枠文字
 10
1738.6030632003389655
 20
849.2849855684009981
 30
0.0
 40
0.146502
 50
358.9650000000006003
 51
47.0629999999987731
  0
LINE
  5
3CB
  8
枠文字
 10
1738.5929632003389997
 20
850.2707855684009246
 30
0.0
 11
1738.7028632003389248
 21
850.2242855684008873
 31
0.0
  0
ARC
  5
3CC
  8
枠文字
 10
1738.585863200338963
 20
850.1177855684010183
 30
0.0
 40
0.149708
 50
134.654000000004288
 51
181.4349999999957106
  0
LINE
  5
3CD
  8
枠文字
 10
1738.480663200338995
 20
850.2242855684008873
 30
0.0
 11
1738.5929632003389997
 21
850.2707855684009246
 31
0.0
  0
ARC
  5
3CE
  8
枠文字
 10
1738.6020632003389892
 20
850.1165855684008648
 30
0.0
 40
0.147524
 50
359.0109999999964998
 51
46.8890000000010332
  0
ARC
  5
3CF
  8
枠文字
 10
1738.5960632003389037
 20
850.1122855684011483
 30
0.0
 40
0.153466
 50
314.0869999999918036
 51
0.647999999999022
  0
ARC
  5
3D0
  8
枠文字
 10
1738.5959632003389288
 20
850.108185568400927
 30
0.0
 40
0.150643
 50
268.8480000000075734
 51
315.1879999999956112
  0
ARC
  5
3D1
  8
枠文字
 10
1738.5901632003390205
 20
850.1145855684010257
 30
0.0
 40
0.157019
 50
225.7909999999988031
 51
271.0309999999975048
  0
ARC
  5
3D2
  8
枠文字
 10
1738.5927632003390499
 20
850.1113855684010332
 30
0.0
 40
0.156603
 50
179.0289999999997121
 51
224.2689999999969075
  0
LINE
  5
3D3
  8
枠ライン
 10
1800.8828969503799726
 20
850.5058008810251522
 30
0.0
 11
1800.8828969503799726
 21
851.9366431025785005
 31
0.0
  0
TEXT
  5
3D4
  8
枠文字
 10
1801.2202498391930021
 20
848.216243164178195
 30
0.0
 40
1.686729999999999
  1
検
 72
     1
 11
1802.3828969503811095
 21
848.216243164178195
 31
0.0
  0
LINE
  5
3D5
  8
枠ライン
 10
1845.6424839728958887
 20
851.9365792114557507
 30
0.0
 11
1845.6424653506689992
 21
839.2548290175437842
 31
0.0
  0
LINE
  5
3D6
  8
枠ライン
 10
1866.9415547552800945
 20
851.9365488085489915
 30
0.0
 11
1866.9415547552800945
 21
839.2549808810250624
 31
0.0
  0
LINE
  5
3D7
  8
枠ライン
 10
1866.9415547552800945
 20
839.2549808810250624
 30
0.0
 11
1866.9415547552800945
 21
851.9365488085489915
 31
0.0
  0
LINE
  5
3D8
  8
枠ライン
 10
1818.3832969503810091
 20
851.9366181220038925
 30
0.0
 11
1818.3832969503810091
 21
839.2549808810250624
 31
0.0
  0
TEXT
  5
3D9
  8
枠文字
 10
1819.6236952480519449
 20
843.1248539079280135
 30
0.0
 40
1.9678500000000001
  1
DRAWING
  0
TEXT
  5
3DA
  8
枠文字
 10
1867.9425547552800708
 20
843.2808279309920181
 30
0.0
 40
1.9678500000000001
  1
PART 
  0
TEXT
  5
3DB
  8
枠文字
 10
1819.6236969503800083
 20
849.4591322273438436
 30
0.0
 40
1.9678500000000001
  1
DATE
  0
TEXT
  5
3DC
  8
枠文字
 10
1846.7931967770289248
 20
849.4591322273438436
 30
0.0
 40
1.9678500000000001
  1
SCALE
  0
LINE
  5
3DD
  8
枠ライン
 10
1866.9415547552800945
 20
846.7550008810251256
 30
0.0
 11
1866.9415547552800945
 21
851.9365488085489915
 31
0.0
  0
TEXT
  5
3DE
  8
枠文字
 10
1867.9425547552800708
 20
849.5996350192529007
 30
0.0
 40
1.9678500000000001
  1
TITLE
  0
LINE
  5
3DF
  8
枠横ライン
 10
1988.5975750022380453
 20
839.2545808810250492
 30
0.0
 11
1988.5975750022380453
 21
851.9363751532442848
 31
0.0
  0
LINE
  5
3E0
  8
枠ライン
 10
1923.6255750022380653
 20
846.754600881025226
 30
0.0
 11
1923.6255750022380653
 21
839.2545808810250492
 31
0.0
  0
LINE
  5
3E1
  8
枠ライン
 10
1923.6255750022380653
 20
851.9364678961470645
 30
0.0
 11
1923.6255750022380653
 21
846.754600881025226
 31
0.0
  0
TEXT
  5
3E2
  8
枠文字
 10
1878.5867223653929159
 20
840.242355958684584
 30
0.0
 40
2.399999999999999
  1
SRP-120
  0
TEXT
  5
3E3
  8
枠文字
 10
1853.6744144347260317
 20
841.0141912470292027
 30
0.0
 40
2.8079999999999998
  1
1:2
  0
TEXT
  5
3E4
  8
枠文字
 10
1878.5867223653929159
 20
846.5472209373206169
 30
0.0
 40
2.399999999999999
  1
SRPシリーズ
  0
LINE
  5
3E5
  8
枠ライン
 10
1818.3832952480520362
 20
845.5959041144998309
 30
0.0
 11
1845.6424746617828987
 21
845.5957041144997675
 31
0.0
  0
TEXT
  5
3E6
  8
枠文字
 10
1833.1447930167189497
 20
847.0308539946853443
 30
0.0
 40
1.9678500000000001
  1
R5．9．21
  0
TEXT
  5
3E7
  8
枠文字
 10
1837.3263005227490794
 20
840.4415411686927655
 30
0.0
 40
1.9678500000000001
  1
山　崎
  0
LINE
  5
40A
  8
壁
 10
1944.3000428906600519
 20
932.4702833860455939
 30
0.0
 11
1944.3000428906600519
 21
856.289052252611441
 31
0.0
  0
LINE
  5
40B
  8
壁
 10
1951.3711107025249021
 20
870.0743857165042527
 30
0.0
 11
1944.3000428906600519
 21
863.0033179046394025
 31
0.0
  0
LINE
  5
40C
  8
壁
 10
1951.3711107025249021
 20
872.5743857165043664
 30
0.0
 11
1944.3000428906600519
 21
865.5033179046395162
 31
0.0
  0
LINE
  5
40D
  8
壁
 10
1951.3711107025249021
 20
875.0743857165043664
 30
0.0
 11
1944.3000428906600519
 21
868.0033179046395162
 31
0.0
  0
LINE
  5
40E
  8
壁
 10
1951.3711107025249021
 20
931.4998000970235807
 30
0.0
 11
1944.3000428906600519
 21
924.428732285157821
 31
0.0
  0
LINE
  5
40F
  8
壁
 10
1951.3711107025249021
 20
933.9998000970235807
 30
0.0
 11
1944.3000428906600519
 21
926.928732285157821
 31
0.0
  0
LINE
  5
410
  8
壁
 10
1951.3711107025249021
 20
928.9998000970235807
 30
0.0
 11
1944.3000428906600519
 21
921.9287322851577073
 31
0.0
  0
TEXT
  5
418
  8
注釈
 10
1951.4978165379759503
 20
919.9526849255120169
 30
0.0
 40
2.399999999999999
  1
シェルプレート　ｔ5　ピクトカット加工
  0
TEXT
  5
419
  8
注釈
 10
1977.1836489735310352
 20
915.7228728311424675
 30
0.0
 40
2.399999999999999
  1
クリア塗装仕上
  0
LINE
  5
41A
  8
注釈
 10
1951.1287839275200895
 20
919.1570635386334516
 30
0.0
 11
1997.0816125942978942
 21
919.1570635386334516
 31
0.0
  0
TEXT
  5
41C
  8
注釈
 10
1952.2559848234209312
 20
890.7666873343496263
 30
0.0
 40
2.399999999999999
  1
両面テープ貼
  0
LINE
  5
41D
  8
注釈
 10
1951.8869522129650704
 20
890.3747855594216389
 30
0.0
 11
1969.3887315093120378
 21
890.3747855594216389
 31
0.0
  0
CIRCLE
  5
65C
  8
LAYER_1
 10
1768.3564476481299153
 20
921.4419907558964269
 30
0.0
 40
5.4454000000000002
  0
LINE
  5
65D
  8
LAYER_1
 10
1772.5009976481298963
 20
914.4545407558964598
 30
0.0
 11
1764.2119976481299091
 21
914.4545407558964598
 31
0.0
  0
ARC
  5
65E
  8
LAYER_1
 10
1764.2119945746680969
 20
908.2511438293588526
 30
0.0
 40
6.2033969265383684
 50
89.9999716129121339
 51
180.0000283870942894
  0
LINE
  5
65F
  8
LAYER_1
 10
1758.0085976481309444
 20
908.2511407558963583
 30
0.0
 11
1758.0085976481309444
 21
887.6451907558963512
 31
0.0
  0
ARC
  5
660
  8
LAYER_1
 10
1759.946826135837
 20
887.6448519056655186
 30
0.0
 40
1.9382285173264331
 50
179.9899832821375867
 51
233.0379875847754931
  0
LINE
  5
661
  8
LAYER_1
 10
1758.781397648129996
 20
886.0961407558964993
 30
0.0
 11
1761.9086976481301008
 21
883.7420407558963689
 31
0.0
  0
LINE
  5
662
  8
LAYER_1
 10
1761.9086976481301008
 20
883.7420407558963689
 30
0.0
 11
1761.9101476481300779
 21
869.1847907558965289
 31
0.0
  0
ARC
  5
663
  8
LAYER_1
 10
1763.8487363913159243
 20
869.1847804887039501
 30
0.0
 40
1.9385887432128071
 50
179.9996965489451952
 51
225.0062903305966984
  0
ARC
  5
664
  8
LAYER_1
 10
1763.8489094596959603
 20
869.1848534737587215
 30
0.0
 40
1.9387627227871049
 50
225.0041983295026
 51
270.0040838489093176
  0
ARC
  5
665
  8
LAYER_1
 10
1763.8491551936990618
 20
869.1846860368007128
 30
0.0
 40
1.938595283887381
 50
269.9968214576438186
 51
315.0041206818760884
  0
ARC
  5
666
  8
LAYER_1
 10
1763.8489627445849237
 20
869.1846910935671531
 30
0.0
 40
1.9387349556912541
 50
315.0080363702643922
 51
0.0132889510386591
  0
LINE
  5
667
  8
LAYER_1
 10
1765.7876976481300062
 20
869.1851407558964411
 30
0.0
 11
1765.7862476481300291
 21
884.7095907558964427
 31
0.0
  0
ARC
  5
668
  8
LAYER_1
 10
1763.8478014680990782
 20
884.7097333840519013
 30
0.0
 40
1.9384461852783681
 50
359.9957842567799844
 51
53.036625845504787
  0
LINE
  5
669
  8
LAYER_1
 10
1765.0133976481299669
 20
886.2585907558964209
 30
0.0
 11
1761.8861976481300644
 21
888.6123907558966266
 31
0.0
  0
LINE
  5
66A
  8
LAYER_1
 10
1761.8861976481300644
 20
888.6123907558966266
 30
0.0
 11
1761.8861976481300644
 21
908.2511407558963583
 31
0.0
  0
ARC
  5
66B
  8
LAYER_1
 10
1764.2119945765350622
 20
908.2511438274910915
 30
0.0
 40
2.3257969284072528
 50
89.9999243315487547
 51
180.0000756684316059
  0
LINE
  5
66C
  8
LAYER_1
 10
1764.2119976481299091
 20
910.5769407558964303
 30
0.0
 11
1772.5009976481298963
 21
910.5769407558964303
 31
0.0
  0
ARC
  5
66D
  8
LAYER_1
 10
1772.500964984958955
 20
908.2511580928897956
 30
0.0
 40
2.3257826632359939
 50
359.9995729022477917
 51
89.9991953410323759
  0
LINE
  5
66E
  8
LAYER_1
 10
1774.8267476481300946
 20
908.2511407558963583
 30
0.0
 11
1774.8267476481300946
 21
888.6124407558963867
 31
0.0
  0
LINE
  5
66F
  8
LAYER_1
 10
1774.8267476481300946
 20
888.6124407558963867
 30
0.0
 11
1771.699497648130091
 21
886.2585907558964209
 31
0.0
  0
ARC
  5
670
  8
LAYER_1
 10
1772.8653947691980193
 20
884.7095832313549408
 30
0.0
 40
1.938747123273465
 50
126.9678121406781059
 51
180.0027329265438993
  0
LINE
  5
671
  8
LAYER_1
 10
1770.9266476481300288
 20
884.7094907558964678
 30
0.0
 11
1770.9266476481300288
 21
869.184990755896365
 31
0.0
  0
ARC
  5
672
  8
LAYER_1
 10
1772.8654970204829624
 20
869.1849401282810277
 30
0.0
 40
1.9388493730132501
 50
179.9985038813624101
 51
269.9985409761898154
  0
ARC
  5
673
  8
LAYER_1
 10
1772.8653965775140477
 20
869.1848918283636749
 30
0.0
 40
1.93880107313982
 50
270.0015092475504161
 51
0.0029235233034576
  0
LINE
  5
674
  8
LAYER_1
 10
1774.8041976481299571
 20
869.184990755896365
 30
0.0
 11
1774.8041976481299571
 21
883.7422407558964323
 31
0.0
  0
LINE
  5
675
  8
LAYER_1
 10
1774.8041976481299571
 20
883.7422407558964323
 30
0.0
 11
1777.931397648130087
 21
886.0960907558965118
 31
0.0
  0
ARC
  5
676
  8
LAYER_1
 10
1776.7659523341030763
 20
887.6449354355247578
 30
0.0
 40
1.938345330843114
 50
306.9600365434582159
 51
0.0075470451688508
  0
LINE
  5
677
  8
LAYER_1
 10
1778.7042976481300229
 20
887.6451907558963512
 30
0.0
 11
1778.7042976481300229
 21
908.2511407558963583
 31
0.0
  0
ARC
  5
678
  8
LAYER_1
 10
1772.50093998451689
 20
908.2511830924073593
 30
0.0
 40
6.2033576637571457
 50
359.999608969279393
 51
89.9994674043111473
  0
CIRCLE
  5
679
  8
LAYER_1
 10
1814.5502585568790437
 20
921.4419407558963258
 30
0.0
 40
5.4454500000000001
  0
LINE
  5
67A
  8
LAYER_1
 10
1827.3724085568790088
 20
884.3098907558966175
 30
0.0
 11
1824.1524085568789815
 21
892.4677407558964433
 31
0.0
  0
LINE
  5
67B
  8
LAYER_1
 10
1824.1524085568789815
 20
892.4677407558964433
 30
0.0
 11
1824.1524085568789815
 21
907.5845407558964553
 31
0.0
  0
ARC
  5
67C
  8
LAYER_1
 10
1817.2823727311420043
 20
907.5845549302374593
 30
0.0
 40
6.8700358257522822
 50
359.9998817866514855
 51
89.9997012149974864
  0
LINE
  5
67D
  8
LAYER_1
 10
1817.2824085568790906
 20
914.4545907558963336
 30
0.0
 11
1811.8178585568789458
 21
914.4545907558963336
 31
0.0
  0
ARC
  5
67E
  8
LAYER_1
 10
1811.8179122625861055
 20
907.5845870502441812
 30
0.0
 40
6.8700037058620724
 50
90.0004479051889064
 51
180.0003860945159033
  0
LINE
  5
67F
  8
LAYER_1
 10
1804.9479085568789287
 20
907.5845407558964553
 30
0.0
 11
1804.9479085568789287
 21
892.5093407558963463
 31
0.0
  0
LINE
  5
680
  8
LAYER_1
 10
1804.9479085568789287
 20
892.5093407558963463
 30
0.0
 11
1801.7267585568790764
 21
884.3068907558964611
 31
0.0
  0
ARC
  5
681
  8
LAYER_1
 10
1803.5315890518879769
 20
883.5980254406941867
 30
0.0
 40
1.9390469697276731
 50
158.557083066405113
 51
214.2403307161173984
  0
ARC
  5
682
  8
LAYER_1
 10
1803.5313326295458864
 20
883.5983668154342467
 30
0.0
 40
1.93902711596238
 50
214.2529329303559962
 51
269.9401912220130271
  0
LINE
  5
683
  8
LAYER_1
 10
1803.5293085568789593
 20
881.6593407558965509
 30
0.0
 11
1808.1024085568790269
 21
881.6543407558965555
 31
0.0
  0
LINE
  5
684
  8
LAYER_1
 10
1808.1024085568790269
 20
881.6543407558965555
 30
0.0
 11
1808.1038085568789029
 21
869.1848907558965038
 31
0.0
  0
ARC
  5
685
  8
LAYER_1
 10
1810.0423995268120052
 20
869.1848314215482105
 30
0.0
 40
1.9385909708413509
 50
179.9982463511971105
 51
225.0041734018255113
  0
ARC
  5
686
  8
LAYER_1
 10
1810.0425273663920507
 20
869.1849703579964626
 30
0.0
 40
1.938779610566673
 50
225.0044048845034013
 51
270.0053546313980064
  0
ARC
  5
687
  8
LAYER_1
 10
1810.0426534913610794
 20
869.1850578950441104
 30
0.0
 40
1.9388671399297139
 50
270.0016272501262051
 51
315.0007925029123044
  0
ARC
  5
688
  8
LAYER_1
 10
1810.0428284209369849
 20
869.1847562651410044
 30
0.0
 40
1.938530164800244
 50
315.0034406091381243
 51
0.0098863092250852
  0
LINE
  5
689
  8
LAYER_1
 10
1811.9813585568790586
 20
869.1850907558964536
 30
0.0
 11
1811.9798585568789804
 21
883.5911907558963776
 31
0.0
  0
ARC
  5
68A
  8
LAYER_1
 10
1810.0411575185910351
 20
883.5911908025515231
 30
0.0
 40
1.9387010382877179
 50
359.9999986211702776
 51
89.9393842283490557
  0
LINE
  5
68B
  8
LAYER_1
 10
1810.0432085568791081
 20
885.5298907558964174
 30
0.0
 11
1806.3746085568789113
 21
885.5339407558965377
 31
0.0
  0
LINE
  5
68C
  8
LAYER_1
 10
1806.3746085568789113
 20
885.5339407558965377
 30
0.0
 11
1808.6912585568788927
 21
891.4333407558965519
 31
0.0
  0
ARC
  5
68D
  8
LAYER_1
 10
1806.8873935978879217
 20
892.1419782259155227
 30
0.0
 40
1.938064976772075
 50
338.5529175636723949
 51
0.0077612774266527
  0
LINE
  5
68E
  8
LAYER_1
 10
1808.8254585568790844
 20
892.1422407558965233
 30
0.0
 11
1808.8254585568790844
 21
907.5845407558964553
 31
0.0
  0
ARC
  5
68F
  8
LAYER_1
 10
1811.8178622623420324
 20
907.5845370504339371
 30
0.0
 40
2.9924037054650139
 50
90.0000709487775907
 51
179.9999290512288894
  0
LINE
  5
690
  8
LAYER_1
 10
1811.8178585568789458
 20
910.5769407558964303
 30
0.0
 11
1817.2824085568790906
 21
910.5769407558964303
 31
0.0
  0
ARC
  5
691
  8
LAYER_1
 10
1817.282397730340108
 20
907.5845299293573589
 30
0.0
 40
2.9924108265587699
 50
0.0002072960680439
 51
89.9997927039254364
  0
LINE
  5
692
  8
LAYER_1
 10
1820.274808556878952
 20
907.5845407558964553
 30
0.0
 11
1820.274808556878952
 21
892.0988407558965037
 31
0.0
  0
ARC
  5
693
  8
LAYER_1
 10
1822.2104938006389148
 20
892.0983225553411557
 30
0.0
 40
1.9356853131230081
 50
179.9846613987803039
 51
201.557299504017692
  0
LINE
  5
694
  8
LAYER_1
 10
1820.4102085568790699
 20
891.3870907558964518
 30
0.0
 11
1822.7204585568790662
 21
885.5339407558965377
 31
0.0
  0
LINE
  5
695
  8
LAYER_1
 10
1822.7204585568790662
 20
885.5339407558965377
 30
0.0
 11
1819.0571085568790295
 21
885.5298907558964174
 31
0.0
  0
ARC
  5
696
  8
LAYER_1
 10
1819.0591635761479665
 20
883.5910868257233233
 30
0.0
 40
1.938805019273169
 50
90.0607301671961409
 51
179.9998838550880862
  0
LINE
  5
697
  8
LAYER_1
 10
1817.1203585568789549
 20
883.5910907558965164
 30
0.0
 11
1817.1203585568789549
 21
869.1850907558964536
 31
0.0
  0
ARC
  5
698
  8
LAYER_1
 10
1819.0592192653909933
 20
869.1850514647766204
 30
0.0
 40
1.9388607089097021
 50
179.9988388978435125
 51
269.999683549975714
  0
ARC
  5
699
  8
LAYER_1
 10
1819.0591608901199834
 20
869.1850384227760742
 30
0.0
 40
1.9388476674654991
 50
270.0014086223482082
 51
0.0015465201192526
  0
LINE
  5
69A
  8
LAYER_1
 10
1820.9980085568790855
 20
869.1850907558964536
 30
0.0
 11
1820.9980085568790855
 21
881.6543407558965555
 31
0.0
  0
LINE
  5
69B
  8
LAYER_1
 10
1820.9980085568790855
 20
881.6543407558965555
 30
0.0
 11
1825.5710085568789509
 21
881.6593407558965509
 31
0.0
  0
ARC
  5
69C
  8
LAYER_1
 10
1825.5690456450970487
 20
883.5980579738045435
 30
0.0
 40
1.9387182116118811
 50
270.0580107925043194
 51
325.8019317757954241
  0
ARC
  5
69D
  8
LAYER_1
 10
1825.5692975267470501
 20
883.5980842630416419
 30
0.0
 40
1.938524663308151
 50
325.7971047666305822
 51
21.5424093212560486
  0
LINE
  5
69E
  8
LAYER_1
 10
1892.7121334276769176
 20
870.4345407558962506
 30
0.0
 11
1885.6064334276770751
 21
889.6272407558964233
 31
0.0
  0
ARC
  5
69F
  8
LAYER_1
 10
1883.6575701385199864
 20
888.9056925624430505
 30
0.0
 40
2.078148193777511
 50
20.3165950542840399
 51
90.0010121397207854
  0
LINE
  5
6A0
  8
LAYER_1
 10
1883.6575334276769809
 20
890.9838407558962672
 30
0.0
 11
1877.7976334276770558
 21
890.9838407558962672
 31
0.0
  0
ARC
  5
6A1
  8
LAYER_1
 10
1862.4949860791609808
 20
883.6448505514812268
 30
0.0
 40
16.9714994356287185
 50
25.6218907906504008
 51
43.652527354652932
  0
LINE
  5
6A2
  8
LAYER_1
 10
1874.7745334276769427
 20
895.3599907558963196
 30
0.0
 11
1874.7745334276769427
 21
906.5678907558963147
 31
0.0
  0
ARC
  5
6A3
  8
LAYER_1
 10
1867.3556421944990689
 20
906.5677995229549424
 30
0.0
 40
7.4188912337388357
 50
0.0007045881006949
 51
90.0008400015176022
  0
LINE
  5
6A4
  8
LAYER_1
 10
1867.3555334276770736
 20
913.9866907558963476
 30
0.0
 11
1864.7329334276769259
 21
913.9866907558963476
 31
0.0
  0
ARC
  5
6A5
  8
LAYER_1
 10
1864.732931379458023
 20
906.567892804115786
 30
0.0
 40
7.418797951780844
 50
89.9999841814774015
 51
180.0000158185096097
  0
LINE
  5
6A6
  8
LAYER_1
 10
1857.3141334276770067
 20
906.5678907558963147
 30
0.0
 11
1857.3141334276770067
 21
899.7826407558961819
 31
0.0
  0
ARC
  5
6A7
  8
LAYER_1
 10
1862.6623609143300655
 20
883.5380040089955855
 30
0.0
 40
17.1023904846004591
 50
108.2231139174095063
 51
142.8225127651705861
  0
ARC
  5
6A8
  8
LAYER_1
 10
1862.4989358356328921
 20
883.695872812765856
 30
0.0
 40
16.8768024284665898
 50
142.9142754492434051
 51
180.0028247855067036
  0
ARC
  5
6A9
  8
LAYER_1
 10
1862.5385008373750679
 20
883.6951581657997394
 30
0.0
 40
16.9163674101050603
 50
180.0003976676393904
 51
270.0002797335625928
  0
ARC
  5
6AA
  8
LAYER_1
 10
1862.5386047003230487
 20
883.6950694832612498
 30
0.0
 40
16.9162787273782698
 50
269.9999279491175912
 51
359.9999026998327736
  0
ARC
  5
6AB
  8
LAYER_1
 10
1862.6296748467009365
 20
883.6884735375268747
 30
0.0
 40
16.8252098626351909
 50
0.02236369759481
 51
10.7522917384349395
  0
LINE
  5
6AC
  8
LAYER_1
 10
1879.1594834276770598
 20
886.8274407558963048
 30
0.0
 11
1882.2107834276769154
 21
886.8274407558963048
 31
0.0
  0
LINE
  5
6AD
  8
LAYER_1
 10
1882.2107834276769154
 20
886.8274407558963048
 30
0.0
 11
1888.8143334276769565
 21
868.9913907558963047
 31
0.0
  0
ARC
  5
6AE
  8
LAYER_1
 10
1890.7634047236740571
 20
869.7126250655593367
 30
0.0
 40
2.0782343097719158
 50
200.3064886979884989
 51
269.9994128810619145
  0
ARC
  5
6AF
  8
LAYER_1
 10
1890.7626417016620053
 20
869.7126084095409624
 30
0.0
 40
2.0782177860073832
 50
270.0204491422309161
 51
290.3333346324528179
  0
ARC
  5
6B0
  8
LAYER_1
 10
1890.7630758528109709
 20
869.7129172155637207
 30
0.0
 40
2.0783565536504129
 50
290.319153681100488
 51
20.3166833269452489
  0
ARC
  5
6B1
  8
LAYER_1
 10
1862.5385047013169242
 20
883.6949694822118317
 30
0.0
 40
12.7596787265582599
 50
270.0003535110906796
 51
0.0003200457784561
  0
ARC
  5
6B2
  8
LAYER_1
 10
1862.5384258376770958
 20
883.6952331663735549
 30
0.0
 40
12.7599424114503499
 50
180.0008639778997122
 51
270.00070762402828
  0
ARC
  5
6B3
  8
LAYER_1
 10
1862.5385546957040788
 20
883.6950194878837692
 30
0.0
 40
12.7600712680448307
 50
89.9998709865373741
 51
179.9999045015237016
  0
ARC
  5
6B4
  8
LAYER_1
 10
1862.4891903265290694
 20
883.5984679840562421
 30
0.0
 40
12.8567176517118007
 50
48.6941388991328594
 51
89.7798798051759803
  0
ARC
  5
6B5
  8
LAYER_1
 10
1872.6989510673570294
 20
894.424901617286082
 30
0.0
 40
2.0821242327058882
 50
214.1395825321831126
 51
239.1060624610470029
  0
ARC
  5
6B6
  8
LAYER_1
 10
1862.3941865511530978
 20
883.6259875323785309
 30
0.0
 40
12.9041816376329006
 50
0.3066042670005892
 51
44.2982971864781874
  0
CIRCLE
  5
6B7
  8
LAYER_1
 10
1866.0443334276769747
 20
921.4418407558963509
 30
0.0
 40
5.445549999999999
  0
CIRCLE
  5
6B8
  8
LAYER_1
 10
1768.8743901044999802
 20
1009.2340955561779765
 30
0.0
 40
5.4734499999999988
  0
LINE
  5
6B9
  8
LAYER_1
 10
1776.853490104499997
 20
1001.0132955561780363
 30
0.0
 11
1773.200490104499977
 21
1001.0132955561780363
 31
0.0
  0
ARC
  5
6BA
  8
LAYER_1
 10
1773.143320520594898
 20
996.3414416565772171
 30
0.0
 40
4.6722036792654231
 50
89.2989052185204599
 51
100.7699987132865971
  0
ARC
  5
6BB
  8
LAYER_1
 10
1772.822279050375073
 20
998.1778484247032566
 30
0.0
 40
2.8082901293853961
 50
101.3367311335576062
 51
120.9931596167020018
  0
ARC
  5
6BC
  8
LAYER_1
 10
1772.4808132470329838
 20
998.8332758264274389
 30
0.0
 40
2.0710902989756832
 50
122.2323147623027069
 51
146.418403158993101
  0
ARC
  5
6BD
  8
LAYER_1
 10
1781.9522500619571019
 20
992.5794285221511473
 30
0.0
 40
13.4209182007178907
 50
146.5413772503505072
 51
152.0240394085124933
  0
ARC
  5
6BE
  8
LAYER_1
 10
1767.296749998137102
 20
1000.4614914214299688
 30
0.0
 40
3.2206408555541861
 50
317.1937091959044892
 51
330.4923054445735033
  0
ARC
  5
6BF
  8
LAYER_1
 10
1768.7429241384559191
 20
999.1373196575882503
 30
0.0
 40
1.259893902509974
 50
297.1448472091561825
 51
316.6833922938052979
  0
ARC
  5
6C0
  8
LAYER_1
 10
1769.0953194761659688
 20
998.4933909150521458
 30
0.0
 40
0.5264848966867036
 50
271.3191683408131212
 51
294.9902136630479959
  0
ARC
  5
6C1
  8
LAYER_1
 10
1769.1215734232330306
 20
998.5238992762476755
 30
0.0
 40
0.5570330477212789
 50
235.1903541621900899
 51
268.5461070455049253
  0
ARC
  5
6C2
  8
LAYER_1
 10
1769.4461664554769413
 20
999.0792784821835539
 30
0.0
 40
1.1993883217083949
 50
227.2707706974516952
 51
237.6049815670453995
  0
ARC
  5
6C3
  8
LAYER_1
 10
1769.9978663507140482
 20
999.6806858130511273
 30
0.0
 40
2.0155126008775288
 50
219.4840345428185913
 51
227.3507721018098096
  0
ARC
  5
6C4
  8
LAYER_1
 10
1770.9885680209740713
 20
1000.498001922573053
 30
0.0
 40
3.2998392631789391
 50
209.4578706975999864
 51
219.4988857181054982
  0
ARC
  5
6C5
  8
LAYER_1
 10
1756.6028771765029433
 20
992.781531919576878
 30
0.0
 40
13.0257260521070908
 50
27.8927239241441391
 51
33.5418594169895812
  0
ARC
  5
6C6
  8
LAYER_1
 10
1765.6814812434179203
 20
998.7912713055681024
 30
0.0
 40
2.1382244322266062
 50
33.738412018048038
 51
74.1495166321243033
  0
ARC
  5
6C7
  8
LAYER_1
 10
1765.2555915994580573
 20
997.6345853075288233
 30
0.0
 40
3.3685584187767299
 50
72.554325301814643
 51
85.1526356709641732
  0
ARC
  5
6C8
  8
LAYER_1
 10
1765.0546232011499796
 20
995.7272159263800404
 30
0.0
 40
5.2862323571541978
 50
84.7291225488095137
 51
90.4355359097093441
  0
LINE
  5
6C9
  8
LAYER_1
 10
1765.014440104499954
 20
1001.0132955561780363
 30
0.0
 11
1761.3613901045000603
 21
1001.0132955561780363
 31
0.0
  0
ARC
  5
6CA
  8
LAYER_1
 10
1761.1093293471728884
 20
992.8911289939901508
 30
0.0
 40
8.1260768079874062
 50
88.2224713291187612
 51
94.4375836730308151
  0
ARC
  5
6CB
  8
LAYER_1
 10
1760.7399394251360718
 20
997.6510436467184491
 30
0.0
 40
3.3518505444282098
 50
94.4376944989486447
 51
106.9993397586924004
  0
ARC
  5
6CC
  8
LAYER_1
 10
1760.3645346514410903
 20
999.0161651792956263
 30
0.0
 40
1.9370353571312411
 50
108.1857015161451017
 51
164.6678304581149064
  0
ARC
  5
6CD
  8
LAYER_1
 10
1761.7963258213319477
 20
998.5409247724003308
 30
0.0
 40
3.4444514147231868
 50
163.3413033903906069
 51
175.35444894331809
  0
ARC
  5
6CE
  8
LAYER_1
 10
1763.6515336432050844
 20
998.3407368839840501
 30
0.0
 40
5.3100066305515998
 50
174.8227626227335918
 51
180.1272303257493093
  0
LINE
  5
6CF
  8
LAYER_1
 10
1758.3415401044999271
 20
998.3289455561782688
 30
0.0
 11
1758.3415401044999271
 21
983.7887955561782292
 31
0.0
  0
ARC
  5
6D0
  8
LAYER_1
 10
1763.964947670320953
 20
983.7106590208420585
 30
0.0
 40
5.6239503882488977
 50
179.2039336350254928
 51
185.2777555914337881
  0
ARC
  5
6D1
  8
LAYER_1
 10
1760.8436704959260624
 20
983.4164939662440474
 30
0.0
 40
2.4888542187871718
 50
185.1439952292735995
 51
199.696759002894396
  0
ARC
  5
6D2
  8
LAYER_1
 10
1760.2003766394959712
 20
983.2283640377711436
 30
0.0
 40
1.8202249216238671
 50
200.9463395927737963
 51
226.8773810032051017
  0
ARC
  5
6D3
  8
LAYER_1
 10
1761.1190307114159168
 20
984.1522225384331932
 30
0.0
 40
3.1227428789250582
 50
226.1617178819587082
 51
240.2968193198805125
  0
ARC
  5
6D4
  8
LAYER_1
 10
1746.7646394678249635
 20
960.4478697354318228
 30
0.0
 40
24.5902723790138182
 50
56.2838245774276515
 51
58.6128786201290808
  0
ARC
  5
6D5
  8
LAYER_1
 10
1723.5717102824009999
 20
925.508409364107024
 30
0.0
 40
66.5268194840258928
 50
53.6662495309147189
 51
56.3719738290198507
  0
ARC
  5
6D6
  8
LAYER_1
 10
1757.4289385869999478
 20
971.3068906874309505
 30
0.0
 40
9.5735291193939975
 50
48.9956280755817914
 51
54.502022603597311
  0
ARC
  5
6D7
  8
LAYER_1
 10
1760.2953321837730982
 20
974.6524508817293508
 30
0.0
 40
5.1681804266697062
 50
42.9000969097886014
 51
48.6416813107173809
  0
ARC
  5
6D8
  8
LAYER_1
 10
1762.969909757267942
 20
977.1976653737253855
 30
0.0
 40
1.4770074441544709
 50
13.0209341548961604
 51
41.1995332343473422
  0
ARC
  5
6D9
  8
LAYER_1
 10
1761.5689243514730151
 20
976.8282706247578062
 30
0.0
 40
2.9255322783650279
 50
358.3139991325535902
 51
13.8874922846715503
  0
ARC
  5
6DA
  8
LAYER_1
 10
1806.4544136291260656
 20
977.5093418181651259
 30
0.0
 40
41.9682355248699395
 50
181.0473800157425046
 51
182.6212398376684973
  0
ARC
  5
6DB
  8
LAYER_1
 10
2280.1453060607332191
 20
997.2290164677083339
 30
0.0
 40
516.0690827317619096
 50
182.4031436931095129
 51
182.8574819469889121
  0
ARC
  5
6DC
  8
LAYER_1
 10
2748.7129097367560462
 20
1019.4799097928009814
 30
0.0
 40
985.163983364085766
 50
182.791430621732502
 51
183.480975443823894
  0
ARC
  5
6DD
  8
LAYER_1
 10
1839.2039251014139154
 20
964.1389768771236959
 30
0.0
 40
73.9728900418954254
 50
183.4685294591587876
 51
184.8850700837760996
  0
ARC
  5
6DE
  8
LAYER_1
 10
1768.4774570155921083
 20
958.1356143512905419
 30
0.0
 40
2.9923896020208871
 50
185.6762441049951917
 51
205.8412180999424947
  0
ARC
  5
6DF
  8
LAYER_1
 10
1769.1569334447410711
 20
958.4470851773970708
 30
0.0
 40
3.7397191339070761
 50
205.5984757738756059
 51
269.2393981157156873
  0
LINE
  5
6E0
  8
LAYER_1
 10
1769.1072901044999526
 20
954.7076955561783507
 30
0.0
 11
1769.1074401045000286
 21
954.7076955561783507
 31
0.0
  0
LINE
  5
6E1
  8
LAYER_1
 10
1769.1074401045000286
 20
954.7076955561783507
 30
0.0
 11
1769.1076401044999784
 21
954.7076955561783507
 31
0.0
  0
ARC
  5
6E2
  8
LAYER_1
 10
1769.0173173909040543
 20
958.4554541419850011
 30
0.0
 40
3.748846837372684
 50
271.3805875049740166
 51
350.5453944987419277
  0
ARC
  5
6E3
  8
LAYER_1
 10
1688.6204406050048874
 20
964.897785973723785
 30
0.0
 40
84.390477241298484
 50
355.2023660476554028
 51
356.4440344094105058
  0
ARC
  5
6E4
  8
LAYER_1
 10
1313.8576043993489293
 20
988.9807191808331481
 30
0.0
 40
459.9261690738371158
 50
356.3453111182598718
 51
356.834554298216915
  0
ARC
  5
6E5
  8
LAYER_1
 10
741.0799839374149087
 20
1021.3792465832309517
 30
0.0
 40
1033.6191496549540716
 50
356.7946049775545134
 51
357.4665883361427063
  0
ARC
  5
6E6
  8
LAYER_1
 10
1750.1143847609189379
 20
976.9541124985046281
 30
0.0
 40
23.6083064853993605
 50
356.9336429101456929
 51
359.4856848595752012
  0
ARC
  5
6E7
  8
LAYER_1
 10
1777.0893688551420837
 20
976.7808829526363752
 30
0.0
 40
3.3678509641599179
 50
167.1403223049454141
 51
180.6581862777862
  0
ARC
  5
6E8
  8
LAYER_1
 10
1775.3827249320290775
 20
977.134493529672568
 30
0.0
 40
1.6256908450364691
 50
127.9490132260929016
 51
165.9032947351745122
  0
ARC
  5
6E9
  8
LAYER_1
 10
1754.3193772772169723
 20
999.7252422722225447
 30
0.0
 40
29.2679581995192599
 50
313.2760914261663174
 51
313.6040735458632867
  0
ARC
  5
6EA
  8
LAYER_1
 10
1777.1289486637178925
 20
975.6863797314358635
 30
0.0
 40
3.870727712902589
 50
127.0537036807103988
 51
132.6866502240175123
  0
ARC
  5
6EB
  8
LAYER_1
 10
1792.4831556404769799
 20
955.8734360009646025
 30
0.0
 40
28.9364637149907189
 50
125.7063310135335996
 51
127.6778197747194952
  0
ARC
  5
6EC
  8
LAYER_1
 10
1810.910912807215027
 20
930.6285356138339466
 30
0.0
 40
60.1912521765254311
 50
122.4175744559355934
 51
125.9252530029190069
  0
ARC
  5
6ED
  8
LAYER_1
 10
1776.8971117553610384
 20
984.4152096810828425
 30
0.0
 40
3.449935278573645
 50
300.4066358041148987
 51
313.577886011679027
  0
ARC
  5
6EE
  8
LAYER_1
 10
1777.9119119698289069
 20
983.2949399406459179
 30
0.0
 40
1.939181644532757
 50
314.6737366904314968
 51
355.7815660259688002
  0
ARC
  5
6EF
  8
LAYER_1
 10
1774.4880620411620384
 20
983.7034686583740495
 30
0.0
 40
5.3860539882709402
 50
354.1264472932018066
 51
0.9077286737752938
  0
LINE
  5
6F0
  8
LAYER_1
 10
1779.873440104500105
 20
983.7887955561782292
 30
0.0
 11
1779.873440104500105
 21
998.3289455561782688
 31
0.0
  0
ARC
  5
6F1
  8
LAYER_1
 10
1775.4312852901509814
 20
998.364953063479561
 30
0.0
 40
4.44230074794865
 50
359.5355783167677259
 51
15.1822156058380298
  0
ARC
  5
6F2
  8
LAYER_1
 10
1777.5541537453289038
 20
998.883317079186213
 30
0.0
 40
2.2584574487676798
 50
16.5950617208179203
 51
38.1009416418132574
  0
ARC
  5
6F3
  8
LAYER_1
 10
1777.9336114997120148
 20
999.118068040340404
 30
0.0
 40
1.8156723932101819
 50
39.6604091160533514
 51
74.3227197625246703
  0
ARC
  5
6F4
  8
LAYER_1
 10
1777.5269493761229569
 20
997.9207572833219047
 30
0.0
 40
3.0790805884934862
 50
73.0573020669506263
 51
86.1379327154020302
  0
ARC
  5
6F5
  8
LAYER_1
 10
1777.2220688967940987
 20
994.6154342424764536
 30
0.0
 40
6.3979525517446252
 50
85.4075261267368973
 51
89.7942848014371293
  0
ARC
  5
6F6
  8
LAYER_1
 10
1777.0509581548699316
 20
987.7550431038315537
 30
0.0
 40
13.2597229126808909
 50
89.1613343833261638
 51
90.8532986850380126
  0
CIRCLE
  5
6F7
  8
LAYER_1
 10
1814.5502585568790437
 20
1009.2038344809400314
 30
0.0
 40
5.4791499999999989
  0
ARC
  5
6F8
  8
LAYER_1
 10
1814.523219001391908
 20
996.0658333217199925
 30
0.0
 40
5.470217988551787
 50
60.7340942099906584
 51
89.7167830017624368
  0
ARC
  5
6F9
  8
LAYER_1
 10
1814.3814402839950617
 20
995.6624781457041991
 30
0.0
 40
5.8918579845882624
 50
17.9455304297881391
 51
61.4489023027842691
  0
ARC
  5
6FA
  8
LAYER_1
 10
1814.6000358941369086
 20
995.8804224812944312
 30
0.0
 40
5.6184899045369816
 50
359.7196839867444282
 51
16.5178119234152412
  0
ARC
  5
6FB
  8
LAYER_1
 10
1810.0758028097720853
 20
995.7977299827283559
 30
0.0
 40
10.1428059796564796
 50
352.6099869898362726
 51
0.3118466803445507
  0
ARC
  5
6FC
  8
LAYER_1
 10
1813.4746784572150773
 20
995.4213635878277273
 30
0.0
 40
6.7240574287207284
 50
338.4500439586582274
 51
352.0652086482280083
  0
ARC
  5
6FD
  8
LAYER_1
 10
1371.7111023566299082
 20
1164.7061906173748866
 30
0.0
 40
479.8118770621945828
 50
338.9436190318717763
 51
339.0248815835985852
  0
ARC
  5
6FE
  8
LAYER_1
 10
1820.8413913036549729
 20
991.7709287095218542
 30
0.0
 40
1.4622368698650461
 50
158.1017194872841003
 51
178.1597850661254938
  0
ARC
  5
6FF
  8
LAYER_1
 10
1820.1610824725710245
 20
991.8260932519701782
 30
0.0
 40
0.7812170444120367
 50
180.6020562322877083
 51
234.2366134322423079
  0
ARC
  5
700
  8
LAYER_1
 10
1820.8173654412739779
 20
992.5779086220381942
 30
0.0
 40
1.7772680834271311
 50
231.2325092033331941
 51
239.2518005165568127
  0
ARC
  5
701
  8
LAYER_1
 10
1821.7704893344800894
 20
994.1829408969889528
 30
0.0
 40
3.6439691083061598
 50
239.2747954294221984
 51
244.8737583682589047
  0
ARC
  5
702
  8
LAYER_1
 10
1825.1563435811260661
 20
1001.3646081797520537
 30
0.0
 40
11.58375960442139
 50
244.7944783711234038
 51
246.5629727238770954
  0
ARC
  5
703
  8
LAYER_1
 10
1815.9134154538260191
 20
979.9702982347098441
 30
0.0
 40
11.72179876668703
 50
56.3254457512929321
 51
66.7048518746899362
  0
ARC
  5
704
  8
LAYER_1
 10
1814.3852294031651127
 20
977.5958031448800511
 30
0.0
 40
14.5452645704751706
 50
10.7936661671891407
 51
56.5020799909267524
  0
ARC
  5
705
  8
LAYER_1
 10
1810.9891218708389715
 20
976.8230589894186551
 30
0.0
 40
18.0264220799978609
 50
359.625341071647199
 51
11.1848530404874893
  0
ARC
  5
706
  8
LAYER_1
 10
1828.2659579219730404
 20
976.6419728128362294
 30
0.0
 40
0.7518625581371944
 50
345.2844605416178752
 51
4.8227458991599343
  0
ARC
  5
707
  8
LAYER_1
 10
1828.7403385417660502
 20
976.5221162265805788
 30
0.0
 40
0.2626360319527154
 50
298.6492803770294131
 51
344.2858775034009113
  0
ARC
  5
708
  8
LAYER_1
 10
1828.6628982292190813
 20
976.6764519650467946
 30
0.0
 40
0.4352469631607776
 50
280.9881041651580063
 51
297.854623033535006
  0
ARC
  5
709
  8
LAYER_1
 10
1828.5568515816551098
 20
977.2145638338815843
 30
0.0
 40
0.98370774713316
 50
269.0742749911523219
 51
281.0775423950652794
  0
LINE
  5
70A
  8
LAYER_1
 10
1828.5409585568791044
 20
976.2309844809399237
 30
0.0
 11
1819.829508556879091
 21
976.2309844809399237
 31
0.0
  0
ARC
  5
70B
  8
LAYER_1
 10
1819.8050636949290038
 20
974.4938118698435119
 30
0.0
 40
1.737344592192152
 50
89.1938078123463356
 51
116.2204866789460027
  0
ARC
  5
70C
  8
LAYER_1
 10
1819.6794613791469146
 20
974.8837429685814868
 30
0.0
 40
1.3333756440727911
 50
118.7825548252706938
 51
148.2348044730408105
  0
ARC
  5
70D
  8
LAYER_1
 10
1820.358344640507994
 20
974.4258907873356748
 30
0.0
 40
2.1518383922082371
 50
147.3859016079534001
 51
163.0248612242540958
  0
ARC
  5
70E
  8
LAYER_1
 10
1822.4285950517351012
 20
973.7452536271614463
 30
0.0
 40
4.3308580332483624
 50
162.4088855670156022
 51
176.7837570922943087
  0
ARC
  5
70F
  8
LAYER_1
 10
560.4507024628454701
 20
1082.6631086150539431
 30
0.0
 40
1262.340465174216888
 50
354.4782148322074136
 51
355.0612937062520018
  0
ARC
  5
710
  8
LAYER_1
 10
1570.2709816873489217
 20
985.0954690654211845
 30
0.0
 40
247.8177076094588074
 50
353.6652290779530858
 51
354.4656671046682277
  0
ARC
  5
711
  8
LAYER_1
 10
1777.5490913576838921
 20
961.9465394983644728
 30
0.0
 40
39.2512454931695274
 50
351.7618868769399114
 51
353.8652683956440228
  0
ARC
  5
712
  8
LAYER_1
 10
1813.3656753265649968
 20
956.7193307407997054
 30
0.0
 40
3.0555332661526111
 50
346.4778955935817066
 51
352.5346262568717748
  0
ARC
  5
713
  8
LAYER_1
 10
1814.308024437847962
 20
956.5036053048514759
 30
0.0
 40
2.0888921181731441
 50
321.8006142545601733
 51
346.1872851752950737
  0
ARC
  5
714
  8
LAYER_1
 10
1814.8643826443928901
 20
956.1436781561914131
 30
0.0
 40
1.430401313002039
 50
280.9425708946452005
 51
319.3485234922068798
  0
ARC
  5
715
  8
LAYER_1
 10
1814.6034555141889086
 20
957.2060601600776408
 30
0.0
 40
2.523586434789824
 50
268.7921210571054758
 51
282.1804108630735186
  0
ARC
  5
716
  8
LAYER_1
 10
1814.5118147015700742
 20
957.2911790407571289
 30
0.0
 40
2.6084278742024019
 50
255.6721838631781054
 51
270.8444743404137967
  0
ARC
  5
717
  8
LAYER_1
 10
1814.2646657854809291
 20
956.1882739220418443
 30
0.0
 40
1.479044881503647
 50
207.325120176145191
 51
254.375353961706395
  0
ARC
  5
718
  8
LAYER_1
 10
1814.9215343896009927
 20
956.5363369569979568
 30
0.0
 40
2.2224053711766971
 50
193.8354284145075894
 51
207.5235416242398117
  0
ARC
  5
719
  8
LAYER_1
 10
1817.9235494976310292
 20
957.1368670392669173
 30
0.0
 40
5.2826484857884077
 50
187.392351680020198
 51
192.3734747044449875
  0
ARC
  5
71A
  8
LAYER_1
 10
1856.370822465333049
 20
962.5049906688393548
 30
0.0
 40
44.1026503840303477
 50
186.347751260500587
 51
187.8818183366973926
  0
ARC
  5
71B
  8
LAYER_1
 10
2007.7144069319499522
 20
979.6310130366193789
 30
0.0
 40
196.4120807127432045
 50
185.6954061327276975
 51
186.4317867312317105
  0
ARC
  5
71C
  8
LAYER_1
 10
2464.8489925734697863
 20
1025.5369333528210518
 30
0.0
 40
655.8458120783157028
 50
185.2921814700108882
 51
185.7227752826362916
  0
ARC
  5
71D
  8
LAYER_1
 10
3211.3063761897778932
 20
1095.2542396098979225
 30
0.0
 40
1405.5517386238659583
 50
184.9494293647813095
 51
185.315451174892587
  0
ARC
  5
71E
  8
LAYER_1
 10
1805.8453591227739707
 20
973.6036558914451007
 30
0.0
 40
5.1645880692456698
 50
4.2704557244976691
 51
15.3521431371482304
  0
ARC
  5
71F
  8
LAYER_1
 10
1808.4007447019960182
 20
974.272532064231882
 30
0.0
 40
2.5234981636628988
 50
16.0680854696104802
 51
30.3230886403779785
  0
ARC
  5
720
  8
LAYER_1
 10
1809.3467701947040496
 20
974.7837210778563986
 30
0.0
 40
1.4492660049077559
 50
31.7611332168150717
 51
93.0123879604249169
  0
LINE
  5
721
  8
LAYER_1
 10
1809.2706085568790968
 20
976.2309844809399237
 30
0.0
 11
1800.5595085568791092
 21
976.2309844809399237
 31
0.0
  0
ARC
  5
722
  8
LAYER_1
 10
1800.5368164861679361
 20
977.1262202641682961
 30
0.0
 40
0.8955233317148455
 50
256.7924820923678908
 51
271.4519990830382881
  0
ARC
  5
723
  8
LAYER_1
 10
1800.3973498455429763
 20
976.5545178836931655
 30
0.0
 40
0.3071212251490388
 50
194.9024062277121914
 51
257.754386552637186
  0
ARC
  5
724
  8
LAYER_1
 10
1801.0104140681939953
 20
976.6526953223352621
 30
0.0
 40
0.9269428327535164
 50
176.7538269980657901
 51
191.0183754452586129
  0
ARC
  5
725
  8
LAYER_1
 10
1818.7493344088629783
 20
976.7369521469906886
 30
0.0
 40
18.6644028870123009
 50
166.4085425421837101
 51
180.097520080310403
  0
ARC
  5
726
  8
LAYER_1
 10
1814.8712230146788897
 20
977.4578417968264148
 30
0.0
 40
14.7269934070884894
 50
118.1188586914797014
 51
165.5890005201380859
  0
ARC
  5
727
  8
LAYER_1
 10
1812.5915651542370597
 20
981.2774325860797262
 30
0.0
 40
10.2859666697863794
 50
113.1305254344463975
 51
116.9467198603233982
  0
ARC
  5
728
  8
LAYER_1
 10
1806.3813825941190316
 20
996.0022589419071437
 30
0.0
 40
5.6951658410459007
 50
292.3925678510690886
 51
298.6773330441553753
  0
ARC
  5
729
  8
LAYER_1
 10
1808.3169977448089867
 20
992.4919679953851528
 30
0.0
 40
1.6866602947651641
 50
298.2126512500320246
 51
315.8353937713887944
  0
ARC
  5
72A
  8
LAYER_1
 10
1808.9433063481510544
 20
991.8328924509366971
 30
0.0
 40
0.7790425960303987
 50
318.5148530488485221
 51
11.3331248345029607
  0
ARC
  5
72B
  8
LAYER_1
 10
1808.1262956869959453
 20
991.7249743835477602
 30
0.0
 40
1.6022651729087141
 50
9.3753027604763766
 51
21.6568146089641687
  0
ARC
  5
72C
  8
LAYER_1
 10
1820.8913997147610644
 20
997.0984587044393948
 30
0.0
 40
12.2481034980898897
 50
196.9964551557796142
 51
202.9820057282323944
  0
ARC
  5
72D
  8
LAYER_1
 10
1815.6107907120779146
 20
995.4463477356143812
 30
0.0
 40
6.7153021871202681
 50
182.8352144435961009
 51
196.6861980548360123
  0
ARC
  5
72E
  8
LAYER_1
 10
1820.3695500350640941
 20
995.8261177291218473
 30
0.0
 40
11.4879227779752995
 50
179.8662518782043094
 51
183.5530292457613939
  0
ARC
  5
72F
  8
LAYER_1
 10
1814.6617817737289897
 20
995.7581801727271795
 30
0.0
 40
5.7808998244987464
 50
110.6144207337941054
 51
179.0608269921235944
  0
ARC
  5
730
  8
LAYER_1
 10
1814.6260968718379445
 20
995.9134158347991388
 30
0.0
 40
5.6230800839559372
 50
90.772769914282236
 51
110.8309959146478008
  0
TEXT
  5
8BF
  8
注釈
 10
1753.1832920665819984
 20
1020.0579282544889566
 30
0.0
 40
2.399999999999999
  1
SRP-120　M1　男子
  0
LINE
  5
8C0
  8
壁
 10
1944.3000428906600519
 20
1020.492588035162953
 30
0.0
 11
1944.3000428906600519
 21
944.6950007962033169
 31
0.0
  0
LINE
  5
8C1
  8
壁
 10
1951.3711107025260389
 20
955.2752267179658929
 30
0.0
 11
1944.3000428906600519
 21
948.2041589061011564
 31
0.0
  0
LINE
  5
8C2
  8
壁
 10
1951.3711107025260389
 20
957.7752267179658929
 30
0.0
 11
1944.3000428906600519
 21
950.7041589061011564
 31
0.0
  0
LINE
  5
8C3
  8
壁
 10
1951.3711107025260389
 20
960.2752267179660066
 30
0.0
 11
1944.3000428906600519
 21
953.2041589061011564
 31
0.0
  0
LINE
  5
8C4
  8
壁
 10
1951.3711107025260389
 20
1019.334794452670053
 30
0.0
 11
1944.3000428906600519
 21
1012.2637266408039523
 31
0.0
  0
LINE
  5
8C5
  8
壁
 10
1951.3711107025260389
 20
1021.834794452670053
 30
0.0
 11
1944.3000428906600519
 21
1014.7637266408039523
 31
0.0
  0
LINE
  5
8C6
  8
壁
 10
1951.3711107025260389
 20
1016.834794452670053
 30
0.0
 11
1944.3000428906600519
 21
1009.7637266408039523
 31
0.0
  0
TEXT
  5
8CA
  8
注釈
 10
1951.4978165379759503
 20
1007.8083421986899566
 30
0.0
 40
2.399999999999999
  1
シェルプレート　ｔ5　ピクトカット加工
  0
TEXT
  5
8CB
  8
注釈
 10
1977.1836489735310352
 20
1003.5785301043199524
 30
0.0
 40
2.399999999999999
  1
クリア塗装仕上
  0
LINE
  5
8CC
  8
注釈
 10
1951.1287839275200895
 20
1007.0127208118110502
 30
0.0
 11
1997.0816125942978942
 21
1007.0127208118110502
 31
0.0
  0
TEXT
  5
8CE
  8
注釈
 10
1952.2559848234209312
 20
978.6223446075274524
 30
0.0
 40
2.399999999999999
  1
両面テープ貼
  0
LINE
  5
8CF
  8
注釈
 10
1951.8869522129650704
 20
978.2304428325995787
 30
0.0
 11
1969.3887315093120378
 21
978.2304428325995787
 31
0.0
  0
TEXT
  5
935
  8
注釈
 10
1799.0537014538610947
 20
1020.0579282544889566
 30
0.0
 40
2.399999999999999
  1
SRP-120　L1　女子
  0
TEXT
  5
98A
  8
注釈
 10
1753.1832920665819984
 20
933.1072164530472719
 30
0.0
 40
2.399999999999999
  1
SRP-120　M2　ライン男子
  0
TEXT
  5
98B
  8
注釈
 10
1799.0537014538610947
 20
933.1072164530472719
 30
0.0
 40
2.399999999999999
  1
SRP-120　L2　ライン女子
  0
TEXT
  5
98C
  8
注釈
 10
1845.099752821121001
 20
933.1072164530472719
 30
0.0
 40
2.399999999999999
  1
SRP-120　W　車椅子
  0
TEXT
  5
A0F
  8
注釈
 10
1951.0889698537760069
 20
999.6926754798491856
 30
0.0
 40
2.399999999999999
  1
シェルプレート色：ブラック　or ホワイト
  0
TEXT
  5
A10
  8
注釈
 10
1951.0889698537760069
 20
911.8370182066712459
 30
0.0
 40
2.399999999999999
  1
シェルプレート色：ブラック　or ホワイト
  0
LINE
  5
A35
  8
寸法
 62
     2
 10
1944.3000428906600519
 20
864.8620067217651695
 30
0.0
 11
1944.3000428906600519
 21
859.8620067217651695
 31
0.0
  0
LINE
  5
A36
  8
寸法
 62
     2
 10
1941.8000428906600519
 20
864.8873907558962628
 30
0.0
 11
1941.8000428906600519
 21
859.8620067217651695
 31
0.0
  0
LINE
  5
A37
  8
寸法
 62
     2
 10
1945.1000428906600064
 20
859.8620067217651695
 30
0.0
 11
1945.9000428906599609
 21
859.8620067217651695
 31
0.0
  0
LINE
  5
A38
  8
寸法
 62
     2
 10
1941.0000428906600973
 20
859.8620067217651695
 30
0.0
 11
1936.9500428906599154
 21
859.8620067217651695
 31
0.0
  0
LINE
  5
A3C
  8
寸法
 62
     2
 10
1939.8000428906609613
 20
866.8873907558968313
 30
0.0
 11
1935.8000428906700563
 21
866.8873907558968313
 31
0.0
  0
LINE
  5
A3D
  8
寸法
 62
     2
 10
1940.8000428906609613
 20
926.8873907558967176
 30
0.0
 11
1935.8000428906700563
 21
926.8873907558967176
 31
0.0
  0
LINE
  5
A3E
  8
寸法
 62
     2
 10
1935.8000428906700563
 20
867.6873907558967858
 30
0.0
 11
1935.8000428906700563
 21
926.087390755896763
 31
0.0
  0
LINE
  5
A46
  8
寸法
 62
     2
 10
1749.9461600602610361
 20
866.8873907558968313
 30
0.0
 11
1742.394141623645055
 21
866.8873907558968313
 31
0.0
  0
LINE
  5
A47
  8
寸法
 62
     2
 10
1749.9461600602610361
 20
926.8873907558967176
 30
0.0
 11
1742.394141623645055
 21
926.8873907558967176
 31
0.0
  0
LINE
  5
A48
  8
寸法
 62
     2
 10
1742.394141623645055
 20
867.2873907558966948
 30
0.0
 11
1742.394141623645055
 21
926.487390755896854
 31
0.0
  0
LINE
  5
A4C
  8
寸法
 62
     2
 10
1749.9420315128579659
 20
954.6043332196345546
 30
0.0
 11
1742.3900130762410754
 21
954.6043332196345546
 31
0.0
  0
LINE
  5
A4D
  8
寸法
 62
     2
 10
1749.9420315128579659
 20
1014.6043332196350093
 30
0.0
 11
1742.3900130762410754
 21
1014.6043332196350093
 31
0.0
  0
LINE
  5
A4E
  8
寸法
 62
     2
 10
1742.3900130762410754
 20
955.0043332196346455
 30
0.0
 11
1742.3900130762410754
 21
1014.204333219635032
 31
0.0
  0
LINE
  5
A52
  8
0
 10
1941.8000428906600519
 20
866.8873907558963765
 30
0.0
 11
1944.3000428906600519
 21
866.8873907558963765
 31
0.0
  0
LINE
  5
A53
  8
0
 10
1944.3000428906600519
 20
866.8873907558963765
 30
0.0
 11
1944.3000428906600519
 21
926.8873907558963765
 31
0.0
  0
LINE
  5
A54
  8
0
 10
1944.3000428906600519
 20
926.8873907558963765
 30
0.0
 11
1941.8000428906600519
 21
926.8873907558963765
 31
0.0
  0
LINE
  5
A55
  8
0
 10
1941.8000428906600519
 20
926.8873907558963765
 30
0.0
 11
1941.8000428906600519
 21
866.8873907558963765
 31
0.0
  0
LINE
  5
A56
  8
寸法
 62
     2
 10
1944.3000428906600519
 20
952.7176639949432229
 30
0.0
 11
1944.3000428906600519
 21
947.7176639949432229
 31
0.0
  0
LINE
  5
A57
  8
寸法
 62
     2
 10
1941.8000428906600519
 20
952.7430480290743162
 30
0.0
 11
1941.8000428906600519
 21
947.7176639949432229
 31
0.0
  0
LINE
  5
A58
  8
寸法
 62
     2
 10
1945.1000428906609159
 20
947.7176639949432229
 30
0.0
 11
1945.9000428906599609
 21
947.7176639949432229
 31
0.0
  0
LINE
  5
A59
  8
寸法
 62
     2
 10
1941.0000428906600973
 20
947.7176639949432229
 30
0.0
 11
1936.9500428906599154
 21
947.7176639949432229
 31
0.0
  0
LINE
  5
A5D
  8
寸法
 62
     2
 10
1939.8000428906609613
 20
954.7430480290746573
 30
0.0
 11
1935.8000428906709658
 21
954.7430480290746573
 31
0.0
  0
LINE
  5
A5E
  8
寸法
 62
     2
 10
1940.8000428906609613
 20
1014.7430480290749983
 30
0.0
 11
1935.8000428906709658
 21
1014.7430480290749983
 31
0.0
  0
LINE
  5
A5F
  8
寸法
 62
     2
 10
1935.8000428906709658
 20
955.5430480290747255
 30
0.0
 11
1935.8000428906709658
 21
1013.9430480290750438
 31
0.0
  0
LINE
  5
A67
  8
0
 10
1941.8000428906600519
 20
954.7430480290742025
 30
0.0
 11
1944.3000428906600519
 21
954.7430480290742025
 31
0.0
  0
LINE
  5
A68
  8
0
 10
1944.3000428906600519
 20
954.7430480290742025
 30
0.0
 11
1944.3000428906600519
 21
1014.7430480290739752
 31
0.0
  0
LINE
  5
A69
  8
0
 10
1944.3000428906600519
 20
1014.7430480290739752
 30
0.0
 11
1941.8000428906600519
 21
1014.7430480290739752
 31
0.0
  0
LINE
  5
A6A
  8
0
 10
1941.8000428906600519
 20
1014.7430480290739752
 30
0.0
 11
1941.8000428906600519
 21
954.7430480290742025
 31
0.0
  0
ARC
  5
A6B
  8
LAYER_1
 10
1937.3047847627080955
 20
846.6953893517045344
 30
0.0
 40
4.0617871121914444
 50
89.7745617639739066
 51
107.409214712168307
  0
ARC
  5
A6C
  8
LAYER_1
 10
1937.5380439784360078
 20
845.8780344388840149
 30
0.0
 40
4.9115397849238907
 50
107.1528779447299939
 51
122.7041694407169956
  0
ARC
  5
A6D
  8
LAYER_1
 10
1937.7645981123939691
 20
845.4923314574358528
 30
0.0
 40
5.3585348111068534
 50
122.5143026686836976
 51
151.4422313375372084
  0
ARC
  5
A6E
  8
LAYER_1
 10
1937.0057657663251121
 20
845.9615311514951372
 30
0.0
 40
4.467999645420468
 50
152.0752046935099031
 51
162.4664431061432879
  0
ARC
  5
A6F
  8
LAYER_1
 10
1934.4339744212838923
 20
841.4903547288798791
 30
0.0
 40
6.0573570764230746
 50
106.1869913766850004
 51
120.5565189679077065
  0
ARC
  5
A70
  8
LAYER_1
 10
1934.745413327111919
 20
840.9220725729849164
 30
0.0
 40
6.7050846343004507
 50
120.3794716106741021
 51
134.0270165613304982
  0
ARC
  5
A71
  8
LAYER_1
 10
1934.6383226258590184
 20
841.0216941324058553
 30
0.0
 40
6.5590323467367302
 50
133.9592055079720865
 51
147.0394581793792099
  0
ARC
  5
A72
  8
LAYER_1
 10
1934.0086382277108896
 20
841.4394368260709598
 30
0.0
 40
5.8034262729809427
 50
147.117632338653209
 51
161.2393342340093909
  0
ARC
  5
A73
  8
LAYER_1
 10
1933.5500803394008926
 20
841.6246847386554464
 30
0.0
 40
5.3097262345509257
 50
161.5406806768216939
 51
164.713014498735788
  0
ARC
  5
A74
  8
LAYER_1
 10
1932.8026362372279436
 20
841.8182367754868665
 30
0.0
 40
4.5377097739502421
 50
164.58216584953189
 51
181.1379416725793021
  0
ARC
  5
A75
  8
LAYER_1
 10
1933.7861266043419164
 20
838.5829770181827598
 30
0.0
 40
6.353400206675361
 50
136.1264810532665877
 51
150.3280710889829948
  0
ARC
  5
A76
  8
LAYER_1
 10
1934.0662620832079028
 20
838.3357054968662396
 30
0.0
 40
6.7267368484304022
 50
116.7901822650070045
 51
136.2619295844949932
  0
ARC
  5
A77
  8
LAYER_1
 10
1933.6933000659589652
 20
839.044151661967021
 30
0.0
 40
5.926245612809141
 50
102.7486763840911976
 51
116.6585473969439022
  0
ARC
  5
A78
  8
LAYER_1
 10
1933.4743390270818963
 20
839.9279194147610497
 30
0.0
 40
5.0159800657100471
 50
89.7876254855118532
 51
102.536926024508503
  0
ARC
  5
A79
  8
LAYER_1
 10
1933.4812358072319967
 20
840.8689671219857473
 30
0.0
 40
4.0749146849229767
 50
71.5301524228453758
 51
89.8355527737739266
  0
ARC
  5
A7A
  8
LAYER_1
 10
1933.6909078797039001
 20
841.577520960620177
 30
0.0
 40
3.3365310435701669
 50
52.9188080242234804
 51
71.0905070443458129
  0
ARC
  5
A7B
  8
LAYER_1
 10
1933.7901328736979849
 20
841.7515116959688157
 30
0.0
 40
3.1380026865222819
 50
14.1771758758012503
 51
52.4486940522685501
  0
ARC
  5
A7C
  8
LAYER_1
 10
1933.2824678702691017
 20
841.5995360908782459
 30
0.0
 40
3.6674999549961038
 50
1.3016898158492609
 51
14.53663751281338
  0
ARC
  5
A7D
  8
LAYER_1
 10
1932.081954584856021
 20
844.4669755104119986
 30
0.0
 40
5.6071110217434379
 50
330.2289952864862812
 51
344.3549355515311277
  0
ARC
  5
A7E
  8
LAYER_1
 10
1933.1038319853719258
 20
844.1683261656838795
 30
0.0
 40
4.5425703299291342
 50
344.5063870698652977
 51
1.6792785180655001
  0
ARC
  5
A7F
  8
LAYER_1
 10
1934.0160793551779079
 20
844.1698974661245529
 30
0.0
 40
3.630755896282754
 50
2.0763637151085881
 51
19.7748915181958687
  0
ARC
  5
A80
  8
LAYER_1
 10
1934.4523660091690545
 20
844.3075393176075067
 30
0.0
 40
3.1736812024532628
 50
20.1013340273362395
 51
39.2240270737087471
  0
ARC
  5
A81
  8
LAYER_1
 10
1934.4844720122500803
 20
844.3121092872750069
 30
0.0
 40
3.145964159995609
 50
39.529307867031541
 51
67.8762855878666187
  0
ARC
  5
A82
  8
LAYER_1
 10
1934.2553453432710739
 20
843.7956647685421103
 30
0.0
 40
3.7107177039317079
 50
67.6020632938467969
 51
83.9860200889583695
  0
ARC
  5
A83
  8
LAYER_1
 10
1934.1565719881909899
 20
843.1006950131449003
 30
0.0
 40
4.412284399749514
 50
83.6559656790470854
 51
89.596544530868087
  0
ARC
  5
A84
  8
LAYER_1
 10
1934.1566689687990674
 20
842.6867806923612534
 30
0.0
 40
4.8261887154398524
 50
89.6322976021928355
 51
95.2458690883492096
  0
ARC
  5
A85
  8
LAYER_1
 10
1937.1907381933779106
 20
843.4454657059726514
 30
0.0
 40
5.3346459310123846
 50
114.6395327399462047
 51
130.6520302684598107
  0
ARC
  5
A86
  8
LAYER_1
 10
1936.8699885002879455
 20
844.1252234950030697
 30
0.0
 40
4.5830651101578006
 50
98.6552813760351057
 51
114.5376629644375015
  0
ARC
  5
A87
  8
LAYER_1
 10
1936.7380560725669056
 20
844.8348636481425729
 30
0.0
 40
3.8617245161694851
 50
89.6240271362014056
 51
98.3045851978676382
  0
ARC
  5
A88
  8
LAYER_1
 10
1936.7567995411120592
 20
845.463447824932814
 30
0.0
 40
3.2330639281713021
 50
69.5837170672511292
 51
89.8830917558470759
  0
ARC
  5
A89
  8
LAYER_1
 10
1936.9475059360870546
 20
846.0462586134083267
 30
0.0
 40
2.6204531985401229
 50
47.8639240972311626
 51
69.0462712422270926
  0
ARC
  5
A8A
  8
LAYER_1
 10
1937.001339227886092
 20
846.1369194335542261
 30
0.0
 40
2.5171937255589958
 50
14.8896963289872204
 51
47.3881179982563694
  0
ARC
  5
A8B
  8
LAYER_1
 10
1936.5999445811230544
 20
846.0138048815152843
 30
0.0
 40
2.9367885685472181
 50
1.2964334869252609
 51
15.1987052863046994
  0
ARC
  5
A8C
  8
LAYER_1
 10
1935.6564908445000128
 20
848.3032449055335746
 30
0.0
 40
4.4712585628907062
 50
330.1867708438037994
 51
344.3996031047439033
  0
ARC
  5
A8D
  8
LAYER_1
 10
1936.5007084045380452
 20
848.0645066831486929
 30
0.0
 40
3.5939395294688961
 50
344.4460081624889085
 51
3.88802354080932
  0
ARC
  5
A8E
  8
LAYER_1
 10
1937.263506314453025
 20
848.0897311735391213
 30
0.0
 40
2.831311374283779
 50
4.4254396626359211
 51
24.0157455462216483
  0
ARC
  5
A8F
  8
LAYER_1
 10
1937.5214379192088927
 20
848.1616037565248689
 30
0.0
 40
2.5667579635055189
 50
24.8935828837793913
 51
77.5636605950978861
  0
ARC
  5
A90
  8
LAYER_1
 10
1937.3110958438419402
 20
847.4420156312104382
 30
0.0
 40
3.315143496592738
 50
76.691872190324375
 51
89.8328632735483268
  0
ARC
  5
A91
  8
LAYER_1
 10
1939.6853233368349265
 20
841.0326783249377058
 30
0.0
 40
0.1017225618469426
 50
286.8247116910354748
 51
340.3071140253479143
  0
ARC
  5
A92
  8
LAYER_1
 10
1939.2158356980460212
 20
842.1801438607295722
 30
0.0
 40
1.341097728956921
 50
278.5628068442018161
 51
291.8409640360716821
  0
ARC
  5
A93
  8
LAYER_1
 10
1938.0078397173640496
 20
849.0463540266073323
 30
0.0
 40
8.3124184001316035
 50
274.3042311627656886
 51
279.7498093500589107
  0
ARC
  5
A94
  8
LAYER_1
 10
1936.3007448935491084
 20
870.011083022635944
 30
0.0
 40
29.3464226217220414
 50
269.5576446168349776
 51
274.5557542030027207
  0
ARC
  5
A95
  8
LAYER_1
 10
1935.9752089997909934
 20
874.9046030218214582
 30
0.0
 40
34.2392110303371311
 50
266.695406020747896
 51
270.1656119244320848
  0
ARC
  5
A96
  8
LAYER_1
 10
1934.62480363734403
 20
853.1262039318689858
 30
0.0
 40
12.4195286846694408
 50
261.7201575595041163
 51
267.1233650928920156
  0
ARC
  5
A97
  8
LAYER_1
 10
1932.9815111783229895
 20
842.2732512157654128
 30
0.0
 40
1.444439721871291
 50
247.0093839856199907
 51
264.2298997620029013
  0
ARC
  5
A98
  8
LAYER_1
 10
1932.4338245934520728
 20
841.0088327057485458
 30
0.0
 40
0.0673363018699352
 50
188.91296872236029
 51
255.8306195216127037
  0
ARC
  5
A99
  8
LAYER_1
 10
1932.4629545384270841
 20
840.9640394016063283
 30
0.0
 40
0.1016374793763844
 50
106.7686079682716951
 51
160.2406452733453932
  0
ARC
  5
A9A
  8
LAYER_1
 10
1932.9326541992659259
 20
839.8149338386705267
 30
0.0
 40
1.3426055017128049
 50
98.5609779356311009
 51
111.8194115605281951
  0
ARC
  5
A9B
  8
LAYER_1
 10
1934.1409037361149785
 20
832.9392456742774584
 30
0.0
 40
8.3233091265453751
 50
94.3019068433210066
 51
99.7399707080209055
  0
ARC
  5
A9C
  8
LAYER_1
 10
1935.8477599815230406
 20
811.9644941395157502
 30
0.0
 40
29.3672837109710798
 50
89.5582556005576151
 51
94.5529850135209813
  0
ARC
  5
A9D
  8
LAYER_1
 10
1936.1725181700001031
 20
807.0736974138743562
 30
0.0
 40
34.2573487630424935
 50
86.6963356821047313
 51
90.1644778980482755
  0
ARC
  5
A9E
  8
LAYER_1
 10
1937.5229889693289351
 20
828.8491566024594022
 30
0.0
 40
12.4406029876036506
 50
81.7316747771112944
 51
87.1262815684814456
  0
ARC
  5
A9F
  8
LAYER_1
 10
1939.1666580626740597
 20
839.7206969701899197
 30
0.0
 40
1.447071726855067
 50
67.043765430478274
 51
84.2331262617862535
  0
ARC
  5
AA0
  8
LAYER_1
 10
1939.7146746222499587
 20
840.9879528063147518
 30
0.0
 40
0.0672383483213346
 50
8.9385958679625883
 51
75.89868549796536
  0
LINE
  5
AA1
  8
LAYER_1
 10
1941.3735563893969811
 20
847.636980022885723
 30
0.0
 11
1944.0156413893969329
 21
847.636980022885723
 31
0.0
  0
ARC
  5
AA2
  8
LAYER_1
 10
1944.0678373404939521
 20
846.212965358696465
 30
0.0
 40
1.42497094045352
 50
60.873524643277193
 51
92.0991844703586366
  0
ARC
  5
AA3
  8
LAYER_1
 10
1944.3536948119829049
 20
846.8364194321163723
 30
0.0
 40
0.7431625185421457
 50
37.6212723579243118
 51
56.72597196985285
  0
ARC
  5
AA4
  8
LAYER_1
 10
1944.2508063748480254
 20
846.7604161357340899
 30
0.0
 40
0.8710559495582444
 50
357.4156439143649777
 51
37.4497418045652708
  0
ARC
  5
AA5
  8
LAYER_1
 10
1943.7842910110130106
 20
846.7674778908892677
 30
0.0
 40
1.3374883172565
 50
345.468248304837573
 51
358.014565324063426
  0
ARC
  5
AA6
  8
LAYER_1
 10
1943.6273718445700069
 20
846.7965885786820763
 30
0.0
 40
1.496733654862159
 50
312.6089194964849867
 51
345.8967725871881953
  0
ARC
  5
AA7
  8
LAYER_1
 10
1943.6254009114850305
 20
846.8246624157142151
 30
0.0
 40
1.5188315264019689
 50
286.9040539110768009
 51
311.9466621261207138
  0
ARC
  5
AA8
  8
LAYER_1
 10
1943.8314903221830718
 20
844.3535761293538826
 30
0.0
 40
1.0447760699030431
 50
40.4744827000838683
 51
76.970866959683903
  0
ARC
  5
AA9
  8
LAYER_1
 10
1944.0800027967800361
 20
844.6334115001106966
 30
0.0
 40
0.676058903648146
 50
27.0446379743933001
 51
36.1007425573749217
  0
ARC
  5
AAA
  8
LAYER_1
 10
1943.8169789966359531
 20
844.5310637568362608
 30
0.0
 40
0.9572801154062819
 50
347.3279552664099015
 51
25.3423825027346012
  0
ARC
  5
AAB
  8
LAYER_1
 10
1943.1839828310710345
 20
844.5737754539355819
 30
0.0
 40
1.5872056216740911
 50
345.4000175848627237
 51
350.838537498560072
  0
ARC
  5
AAC
  8
LAYER_1
 10
1943.0057260911089543
 20
844.6031090395424599
 30
0.0
 40
1.767177874076038
 50
321.2570294209529038
 51
345.9365033352456749
  0
ARC
  5
AAD
  8
LAYER_1
 10
1942.9579480659190267
 20
844.6312037919155955
 30
0.0
 40
1.8220428700691209
 50
297.9590868388747253
 51
321.508219987623022
  0
ARC
  5
AAE
  8
LAYER_1
 10
1943.0859106335360593
 20
844.5379038269879857
 30
0.0
 40
1.6810669050975551
 50
275.1259550640359066
 51
295.5970031780314002
  0
LINE
  5
AAF
  8
LAYER_1
 10
1943.2361063893970368
 20
842.8635600228856219
 30
0.0
 11
1942.5868013893968964
 21
842.7973200228857422
 31
0.0
  0
LINE
  5
AB0
  8
LAYER_1
 10
1942.5868013893968964
 20
842.7973200228857422
 30
0.0
 11
1940.1503663893970497
 21
842.7973200228857422
 31
0.0
  0
LINE
  5
AB1
  8
LAYER_1
 10
1940.1503663893970497
 20
842.7973200228857422
 30
0.0
 11
1941.3735563893969811
 21
847.636980022885723
 31
0.0
  0
LINE
  5
AB2
  8
LAYER_1
 10
1941.8391263893970518
 20
843.8365050228856035
 30
0.0
 11
1942.5581363893970774
 21
843.8365050228856035
 31
0.0
  0
ARC
  5
AB3
  8
LAYER_1
 10
1942.6091029110050385
 20
844.7963401565741606
 30
0.0
 40
0.9611873231518236
 50
266.9604918419757951
 51
301.1827524538471152
  0
ARC
  5
AB4
  8
LAYER_1
 10
1942.7196385753788945
 20
844.4930135450032367
 30
0.0
 40
0.6474756930826394
 50
306.7209793113329965
 51
346.5729458564514971
  0
ARC
  5
AB5
  8
LAYER_1
 10
1942.9873749830699126
 20
844.457372224587516
 30
0.0
 40
0.3797785170566294
 50
342.4200028029621876
 51
37.4683038372032797
  0
ARC
  5
AB6
  8
LAYER_1
 10
1943.0333320132131121
 20
844.4304504400314499
 30
0.0
 40
0.3630462635295628
 50
45.2767803303909488
 51
76.0047923097623936
  0
ARC
  5
AB7
  8
LAYER_1
 10
1942.8341692914289069
 20
843.6614135782217545
 30
0.0
 40
1.1574434709804851
 50
75.6450922392666172
 51
91.5195385004905262
  0
LINE
  5
AB8
  8
LAYER_1
 10
1942.8034763893970194
 20
844.8184500228855995
 30
0.0
 11
1942.0872113893969981
 21
844.8184500228855995
 31
0.0
  0
LINE
  5
AB9
  8
LAYER_1
 10
1942.0872113893969981
 20
844.8184500228855995
 30
0.0
 11
1941.8391263893970518
 21
843.8365050228856035
 31
0.0
  0
LINE
  5
ABA
  8
LAYER_1
 10
1942.3191413893969184
 20
845.7368550228856066
 30
0.0
 11
1942.9324463893970005
 21
845.7368550228856066
 31
0.0
  0
ARC
  5
ABB
  8
LAYER_1
 10
1942.9841432459800217
 20
846.5808338003038216
 30
0.0
 40
0.8455606079475025
 50
266.4947987045107993
 51
301.2083112159730263
  0
ARC
  5
ABC
  8
LAYER_1
 10
1943.053341898789995
 20
846.3293907567491487
 30
0.0
 40
0.5988843306287768
 50
308.0266514935714781
 51
348.0771909356366223
  0
ARC
  5
ABD
  8
LAYER_1
 10
1943.286723112134041
 20
846.3256110212848853
 30
0.0
 40
0.3724271874306467
 50
341.2121082091344988
 51
34.4316897395496326
  0
ARC
  5
ABE
  8
LAYER_1
 10
1943.3653029040369802
 20
846.3183933988499348
 30
0.0
 40
0.3157414083558419
 50
43.6138282060044631
 51
76.4411853445822231
  0
ARC
  5
ABF
  8
LAYER_1
 10
1943.1961551600450093
 20
845.6529513740090351
 30
0.0
 40
1.0023283929866349
 50
75.9595797491073057
 51
91.2661861993708072
  0
LINE
  5
AC0
  8
LAYER_1
 10
1943.1740063893969364
 20
846.6550350228857269
 30
0.0
 11
1942.5513413893970665
 21
846.6550350228857269
 31
0.0
  0
LINE
  5
AC1
  8
LAYER_1
 10
1942.5513413893970665
 20
846.6550350228857269
 30
0.0
 11
1942.3191413893969184
 21
845.7368550228856066
 31
0.0
  0
LINE
  5
AC2
  8
LAYER_1
 10
1944.8039063893970706
 20
842.7973200228857422
 30
0.0
 11
1946.0269163893970017
 21
847.636980022885723
 31
0.0
  0
LINE
  5
AC3
  8
LAYER_1
 10
1946.0269163893970017
 20
847.636980022885723
 30
0.0
 11
1948.3791563893969396
 21
847.636980022885723
 31
0.0
  0
ARC
  5
AC4
  8
LAYER_1
 10
1948.4956751536490174
 20
844.5692636303285781
 30
0.0
 40
3.0699284173390851
 50
73.8561888366567985
 51
92.1751768912548357
  0
ARC
  5
AC5
  8
LAYER_1
 10
1949.083862988564988
 20
846.8029927666850654
 30
0.0
 40
0.7628023412240742
 50
21.06988003303357
 51
69.6391164072181112
  0
ARC
  5
AC6
  8
LAYER_1
 10
1948.7281259857691111
 20
846.67717367736509
 30
0.0
 40
1.1400366627575009
 50
345.5354904864739183
 51
20.5430428520180293
  0
ARC
  5
AC7
  8
LAYER_1
 10
1948.0157406492398877
 20
846.7520885452123593
 30
0.0
 40
1.8515558140552431
 50
345.644234042653693
 51
348.7988082094640845
  0
ARC
  5
AC8
  8
LAYER_1
 10
1948.0372835239479627
 20
846.7241889894893347
 30
0.0
 40
1.8238970846911919
 50
321.853917228725777
 51
346.3255241773504167
  0
ARC
  5
AC9
  8
LAYER_1
 10
1947.9828483927999514
 20
846.7997088021792251
 30
0.0
 40
1.913526702042974
 50
298.8727875021982072
 51
321.082311053817989
  0
ARC
  5
ACA
  8
LAYER_1
 10
1947.9467919428889218
 20
846.9835621482080796
 30
0.0
 40
2.0927183465168979
 50
281.4792839454361797
 51
297.3064737345515027
  0
ARC
  5
ACB
  8
LAYER_1
 10
1948.0957676559389711
 20
844.0751051624242791
 30
0.0
 40
0.8983516950936603
 50
49.0403829401622531
 51
72.6761832208036083
  0
ARC
  5
ACC
  8
LAYER_1
 10
1947.8533558278929831
 20
844.0511270875583705
 30
0.0
 40
1.0883095829224749
 50
24.2799524775449918
 51
40.1951854723754991
  0
ARC
  5
ACD
  8
LAYER_1
 10
1947.9626548288060803
 20
843.9682744138427779
 30
0.0
 40
1.0298173944246449
 50
12.8736747914062502
 51
30.9977568592639301
  0
LINE
  5
ACE
  8
LAYER_1
 10
1948.9665863893969799
 20
844.1977200228857328
 30
0.0
 11
1949.2994963893970635
 21
842.7973200228857422
 31
0.0
  0
LINE
  5
ACF
  8
LAYER_1
 10
1949.2994963893970635
 20
842.7973200228857422
 30
0.0
 11
1947.7055063893969873
 21
842.7973200228857422
 31
0.0
  0
LINE
  5
AD0
  8
LAYER_1
 10
1947.7055063893969873
 20
842.7973200228857422
 30
0.0
 11
1947.3243563893970531
 21
844.276200022885746
 31
0.0
  0
ARC
  5
AD1
  8
LAYER_1
 10
1946.5620796151599734
 20
844.1673087969343214
 30
0.0
 40
0.7700150515603263
 50
8.1297004547427321
 51
38.725744380283281
  0
ARC
  5
AD2
  8
LAYER_1
 10
1946.8622771671389273
 20
844.3041239799031246
 30
0.0
 40
0.4574653460991089
 50
48.9327628569643309
 51
92.1905602036503069
  0
LINE
  5
AD3
  8
LAYER_1
 10
1946.8447913893969599
 20
844.7612550228857344
 30
0.0
 11
1946.719736389396985
 21
844.7612550228857344
 31
0.0
  0
LINE
  5
AD4
  8
LAYER_1
 10
1946.719736389396985
 20
844.7612550228857344
 30
0.0
 11
1946.2235663893970923
 21
842.7973200228857422
 31
0.0
  0
LINE
  5
AD5
  8
LAYER_1
 10
1946.2235663893970923
 20
842.7973200228857422
 30
0.0
 11
1944.8039063893970706
 21
842.7973200228857422
 31
0.0
  0
LINE
  5
AD6
  8
LAYER_1
 10
1946.9504063893969033
 20
845.6729100228857305
 30
0.0
 11
1947.5433263893969524
 21
845.6729100228857305
 31
0.0
  0
ARC
  5
AD7
  8
LAYER_1
 10
1947.3255243323339982
 20
848.1240045453287166
 30
0.0
 40
2.4607523430875688
 50
275.0779145456482979
 51
284.2927593607839185
  0
ARC
  5
AD8
  8
LAYER_1
 10
1947.8228996071229631
 20
846.240234134280513
 30
0.0
 40
0.5127793700474668
 50
282.401708806859574
 51
317.2691553026767792
  0
ARC
  5
AD9
  8
LAYER_1
 10
1947.7592158303909855
 20
846.3289681642163487
 30
0.0
 40
0.6201583485359807
 50
315.2392622450990984
 51
345.5021097717000202
  0
ARC
  5
ADA
  8
LAYER_1
 10
1947.9712986301678939
 20
846.3058394177138553
 30
0.0
 40
0.4101893517595319
 50
341.209673585893313
 51
33.9824170260677576
  0
ARC
  5
ADB
  8
LAYER_1
 10
1948.0753578259109418
 20
846.3021146480672314
 30
0.0
 40
0.3316889688603545
 50
44.6240111567267803
 51
75.8324610551707821
  0
ARC
  5
ADC
  8
LAYER_1
 10
1947.8556514232529935
 20
845.4609970571692656
 30
0.0
 40
1.201019500060627
 50
75.4911943509582244
 51
91.7983342263125053
  0
LINE
  5
ADD
  8
LAYER_1
 10
1947.8179613893969417
 20
846.6614250228857372
 30
0.0
 11
1947.1999313893970793
 21
846.6614250228857372
 31
0.0
  0
LINE
  5
ADE
  8
LAYER_1
 10
1947.1999313893970793
 20
846.6614250228857372
 30
0.0
 11
1946.9504063893969033
 21
845.6729100228857305
 31
0.0
  0
LINE
  5
ADF
  8
LAYER_1
 10
1950.7051613893970625
 20
847.636980022885723
 30
0.0
 11
1952.1186563893970742
 21
847.636980022885723
 31
0.0
  0
LINE
  5
AE0
  8
LAYER_1
 10
1952.1186563893970742
 20
847.636980022885723
 30
0.0
 11
1950.8953763893969153
 21
842.7973200228857422
 31
0.0
  0
LINE
  5
AE1
  8
LAYER_1
 10
1950.8953763893969153
 20
842.7973200228857422
 30
0.0
 11
1949.4816563893969033
 21
842.7973200228857422
 31
0.0
  0
LINE
  5
AE2
  8
LAYER_1
 10
1949.4816563893969033
 20
842.7973200228857422
 30
0.0
 11
1950.7051613893970625
 21
847.636980022885723
 31
0.0
  0
LINE
  5
AE3
  8
LAYER_1
 10
1952.8303763893970881
 20
847.636980022885723
 30
0.0
 11
1954.9271513893970678
 21
847.636980022885723
 31
0.0
  0
ARC
  5
AE4
  8
LAYER_1
 10
1954.9741252224850996
 20
844.8353128871617628
 30
0.0
 40
2.8020608987655242
 50
78.6033737127389855
 51
90.9605531637904647
  0
ARC
  5
AE5
  8
LAYER_1
 10
1955.2613456905739895
 20
846.2369820122694364
 30
0.0
 40
1.371281768149655
 50
63.0020256225147008
 51
78.7950729478874052
  0
ARC
  5
AE6
  8
LAYER_1
 10
1955.3499742520330074
 20
846.4349751945942444
 30
0.0
 40
1.154683189750483
 50
26.3079137632345805
 51
62.4606229746802413
  0
ARC
  5
AE7
  8
LAYER_1
 10
1954.8625081877289631
 20
846.2159837668039017
 30
0.0
 40
1.6888312631079549
 50
358.4879419851977218
 51
25.6384280704601899
  0
ARC
  5
AE8
  8
LAYER_1
 10
1952.7577829198730797
 20
846.1996291969784352
 30
0.0
 40
3.7930733671139021
 50
345.2483551151860866
 51
359.5738860385500857
  0
ARC
  5
AE9
  8
LAYER_1
 10
1952.1489798364880244
 20
846.2134268196805351
 30
0.0
 40
4.3876107241438866
 50
330.1632220771728043
 51
347.0987649110198845
  0
ARC
  5
AEA
  8
LAYER_1
 10
1953.4992850075609567
 20
845.5895223750080731
 30
0.0
 40
2.908815807048486
 50
308.5314921816798801
 51
327.5895969957967964
  0
ARC
  5
AEB
  8
LAYER_1
 10
1953.9884044219149928
 20
844.9442108232176452
 30
0.0
 40
2.0994056318544421
 50
286.3242758455972989
 51
309.0601887236022094
  0
ARC
  5
AEC
  8
LAYER_1
 10
1953.6242015109830845
 20
846.2857304714106021
 30
0.0
 40
3.489320098085551
 50
271.3083192054754136
 51
285.8719752346559062
  0
LINE
  5
AED
  8
LAYER_1
 10
1953.7038713893969089
 20
842.7973200228857422
 30
0.0
 11
1951.6070963893969292
 21
842.7973200228857422
 31
0.0
  0
LINE
  5
AEE
  8
LAYER_1
 10
1951.6070963893969292
 20
842.7973200228857422
 30
0.0
 11
1952.8303763893970881
 21
847.636980022885723
 31
0.0
  0
LINE
  5
AEF
  8
LAYER_1
 10
1953.9666713893971064
 20
846.5400600228856547
 30
0.0
 11
1953.2978813893969345
 21
843.8941950228856967
 31
0.0
  0
LINE
  5
AF0
  8
LAYER_1
 10
1953.2978813893969345
 20
843.8941950228856967
 30
0.0
 11
1953.6422663893970366
 21
843.8941950228856967
 31
0.0
  0
ARC
  5
AF1
  8
LAYER_1
 10
1953.7242132773490084
 20
845.4866961549357711
 30
0.0
 40
1.5946081487394139
 50
267.0542732342215118
 51
291.0189238218717946
  0
ARC
  5
AF2
  8
LAYER_1
 10
1953.8457517700660446
 20
844.8582802565991869
 30
0.0
 40
0.9708882712833927
 50
297.6400244211894801
 51
329.219659506313576
  0
ARC
  5
AF3
  8
LAYER_1
 10
1953.0291753631850042
 20
845.378219919773187
 30
0.0
 40
1.9387304021835561
 50
328.3679858862010974
 51
341.2531074096850716
  0
ARC
  5
AF4
  8
LAYER_1
 10
1950.0297444533339331
 20
846.4382541709500174
 30
0.0
 40
5.1198714078105079
 50
340.8075339831863175
 51
346.0290607212108966
  0
ARC
  5
AF5
  8
LAYER_1
 10
1952.1506850447090073
 20
845.9963899965415521
 30
0.0
 40
2.9561655640941611
 50
344.4150221195149015
 51
357.0119123760367756
  0
ARC
  5
AF6
  8
LAYER_1
 10
1954.2632343740240231
 20
845.9056249883882401
 30
0.0
 40
0.8419824618597445
 50
355.6860656229463871
 51
24.6055315286515111
  0
ARC
  5
AF7
  8
LAYER_1
 10
1954.5604700377709833
 20
845.9623254167017876
 30
0.0
 40
0.5528644265705956
 50
32.1101833226675524
 51
82.9332622479482353
  0
ARC
  5
AF8
  8
LAYER_1
 10
1954.3333043425438973
 20
845.0311843605792319
 30
0.0
 40
1.5089589918148949
 50
78.7190752547183763
 51
90.6021439399286947
  0
LINE
  5
AF9
  8
LAYER_1
 10
1954.3174463893969914
 20
846.5400600228856547
 30
0.0
 11
1953.9666713893971064
 21
846.5400600228856547
 31
0.0
  0
LINE
  5
AFA
  8
LAYER_1
 10
1958.9698613893970105
 20
844.5508800228857353
 30
0.0
 11
1959.2244263893969674
 21
845.5582500228856588
 31
0.0
  0
LINE
  5
AFB
  8
LAYER_1
 10
1959.2244263893969674
 20
845.5582500228856588
 30
0.0
 11
1961.4041363893970811
 21
845.5582500228856588
 31
0.0
  0
LINE
  5
AFC
  8
LAYER_1
 10
1961.4041363893970811
 20
845.5582500228856588
 30
0.0
 11
1960.8816863893969185
 21
843.4924800228857293
 31
0.0
  0
ARC
  5
AFD
  8
LAYER_1
 10
1957.5556747432879092
 20
848.721462551176387
 30
0.0
 40
6.1971454518370317
 50
289.4458878751116799
 51
302.4593151833374804
  0
ARC
  5
AFE
  8
LAYER_1
 10
1958.5058918884190007
 20
846.5742650145377866
 30
0.0
 40
3.8603428990662709
 50
268.9543052362046183
 51
286.7558603060433029
  0
ARC
  5
AFF
  8
LAYER_1
 10
1958.3719684772129312
 20
845.4545008540530944
 30
0.0
 40
2.740670934186737
 50
248.915812592951994
 51
271.3270674414462178
  0
ARC
  5
B00
  8
LAYER_1
 10
1957.92440108452206
 20
844.1142579793659024
 30
0.0
 40
1.330711647997733
 50
236.2206898820319054
 51
246.1361134443023104
  0
ARC
  5
B01
  8
LAYER_1
 10
1957.9511307881739413
 20
844.1357848027881801
 30
0.0
 40
1.3635045382648969
 50
190.6768014419731969
 51
235.7900331205526072
  0
ARC
  5
B02
  8
LAYER_1
 10
1959.0619954154578863
 20
844.4207372228046324
 30
0.0
 40
2.5090282592793649
 50
168.8164503810176029
 51
192.3717147671218868
  0
ARC
  5
B03
  8
LAYER_1
 10
1960.6575853135059333
 20
844.2077935493826999
 30
0.0
 40
4.1168488754355037
 50
165.8044784944403887
 51
170.2162460051521009
  0
ARC
  5
B04
  8
LAYER_1
 10
1960.3968087591561016
 20
844.2968923714538505
 30
0.0
 40
3.8422508665241328
 50
147.3720260493296053
 51
166.1389199531404017
  0
ARC
  5
B05
  8
LAYER_1
 10
1960.0050871682599336
 20
844.5072609813911413
 30
0.0
 40
3.3990906192296499
 50
142.094168434885006
 51
146.7982469046067138
  0
ARC
  5
B06
  8
LAYER_1
 10
1959.6781896109439458
 20
844.7693211475941553
 30
0.0
 40
2.9801665841961689
 50
114.3016217875170071
 51
142.2083025589423926
  0
ARC
  5
B07
  8
LAYER_1
 10
1959.5659781038509664
 20
844.8862119047289525
 30
0.0
 40
2.827972521465556
 50
91.1497867990272823
 51
113.2041842212266971
  0
ARC
  5
B08
  8
LAYER_1
 10
1959.7450798400238909
 20
843.3195105943902945
 30
0.0
 40
4.4004293222576862
 50
89.8072760982097833
 51
93.0723363237313066
  0
ARC
  5
B09
  8
LAYER_1
 10
1959.8436216211350711
 20
843.4251000187383625
 30
0.0
 40
4.295631309395751
 50
80.8406804002657537
 51
91.1170106214553783
  0
ARC
  5
B0A
  8
LAYER_1
 10
1960.3064031822220841
 20
846.2337399820570454
 30
0.0
 40
1.44917026360817
 50
67.7227908608455067
 51
81.2281772025574611
  0
ARC
  5
B0B
  8
LAYER_1
 10
1960.4518960568359489
 20
846.6052960345085694
 30
0.0
 40
1.050210734371217
 50
29.6019412194172986
 51
67.383496364191771
  0
ARC
  5
B0C
  8
LAYER_1
 10
1960.1898460946349587
 20
846.4870254715411875
 30
0.0
 40
1.336744641815341
 50
12.0284717445858895
 51
28.4612395168945085
  0
ARC
  5
B0D
  8
LAYER_1
 10
1959.4652460614470328
 20
846.3360203667066344
 30
0.0
 40
2.0769072424671471
 50
0.3851088717719596
 51
11.9370111444890803
  0
LINE
  5
B0E
  8
LAYER_1
 10
1961.5421063893970768
 20
846.3499800228855747
 30
0.0
 11
1960.1130413893970399
 21
846.094020022885843
 31
0.0
  0
ARC
  5
B0F
  8
LAYER_1
 10
1959.5225723729179208
 20
846.0863533365067042
 30
0.0
 40
0.5905187867475959
 50
0.7438901581127439
 51
45.9041293427326309
  0
ARC
  5
B10
  8
LAYER_1
 10
1959.5768173067669977
 20
846.091173268382704
 30
0.0
 40
0.5504628943774728
 50
49.6125561073556725
 51
75.1740881864528063
  0
ARC
  5
B11
  8
LAYER_1
 10
1959.4701051871988966
 20
845.6755317616358525
 30
0.0
 40
0.979577795260919
 50
75.3610322459680759
 51
90.7068026432017831
  0
ARC
  5
B12
  8
LAYER_1
 10
1959.4598510936389175
 20
845.4820843256478611
 30
0.0
 40
1.17295212432921
 50
90.0893765151543562
 51
134.8680212611315881
  0
ARC
  5
B13
  8
LAYER_1
 10
1959.6747480050269132
 20
845.2347032641313263
 30
0.0
 40
1.5000485881628129
 50
134.0194005097168883
 51
149.6127741090054997
  0
ARC
  5
B14
  8
LAYER_1
 10
1960.7077555741389006
 20
844.6469148243584186
 30
0.0
 40
2.6885206771000201
 50
149.943019255913299
 51
167.4256009886356082
  0
ARC
  5
B15
  8
LAYER_1
 10
1960.8717805993210277
 20
844.4670059908399935
 30
0.0
 40
2.8911648733769488
 50
164.652358488332311
 51
177.1184240152583982
  0
ARC
  5
B16
  8
LAYER_1
 10
1958.9987861974759653
 20
844.5425300417684866
 30
0.0
 40
1.0169145124221
 50
176.0630516516617092
 51
205.173779945533596
  0
ARC
  5
B17
  8
LAYER_1
 10
1958.6319711375399493
 20
844.4280696832803415
 30
0.0
 40
0.6384089366190057
 50
209.8855726606504959
 51
256.4482021359253281
  0
ARC
  5
B18
  8
LAYER_1
 10
1958.7576370193980893
 20
844.8854588121657798
 30
0.0
 40
1.1126112100291341
 50
255.6762564748887883
 51
270.6537320487850025
  0
ARC
  5
B19
  8
LAYER_1
 10
1958.7660087877450223
 20
845.3553396122764525
 30
0.0
 40
1.582425493276872
 50
270.156511090257311
 51
287.4380551533091079
  0
ARC
  5
B1A
  8
LAYER_1
 10
1958.1757990465730472
 20
846.9647055938393123
 30
0.0
 40
3.2956888445074419
 50
288.8428852950437999
 51
299.4190851208978756
  0
LINE
  5
B1B
  8
LAYER_1
 10
1959.7946213893969798
 20
844.0939950228856787
 30
0.0
 11
1959.9102713893969394
 21
844.5508800228857353
 31
0.0
  0
LINE
  5
B1C
  8
LAYER_1
 10
1959.9102713893969394
 20
844.5508800228857353
 30
0.0
 11
1958.9698613893970105
 21
844.5508800228857353
 31
0.0
  0
LINE
  5
B1D
  8
LAYER_1
 10
1962.4451213893969452
 20
847.636980022885723
 30
0.0
 11
1966.2245813893969171
 21
847.636980022885723
 31
0.0
  0
LINE
  5
B1E
  8
LAYER_1
 10
1966.2245813893969171
 20
847.636980022885723
 30
0.0
 11
1965.9635363893969497
 21
846.6040050228856444
 31
0.0
  0
LINE
  5
B1F
  8
LAYER_1
 10
1965.9635363893969497
 20
846.6040050228856444
 30
0.0
 11
1963.5973013893969892
 21
846.6040050228856444
 31
0.0
  0
LINE
  5
B20
  8
LAYER_1
 10
1963.5973013893969892
 20
846.6040050228856444
 30
0.0
 11
1963.4038463893969038
 21
845.839185022885772
 31
0.0
  0
LINE
  5
B21
  8
LAYER_1
 10
1963.4038463893969038
 20
845.839185022885772
 30
0.0
 11
1965.6020063893970473
 21
845.839185022885772
 31
0.0
  0
LINE
  5
B22
  8
LAYER_1
 10
1965.6020063893970473
 20
845.839185022885772
 30
0.0
 11
1965.352076389397098
 21
844.8504000228857649
 31
0.0
  0
LINE
  5
B23
  8
LAYER_1
 10
1965.352076389397098
 20
844.8504000228857649
 30
0.0
 11
1963.1544113893969552
 21
844.8504000228857649
 31
0.0
  0
LINE
  5
B24
  8
LAYER_1
 10
1963.1544113893969552
 20
844.8504000228857649
 30
0.0
 11
1962.9124013893970186
 21
843.8941950228856967
 31
0.0
  0
LINE
  5
B25
  8
LAYER_1
 10
1962.9124013893970186
 20
843.8941950228856967
 30
0.0
 11
1965.3468113893970894
 21
843.8941950228856967
 31
0.0
  0
LINE
  5
B26
  8
LAYER_1
 10
1965.3468113893970894
 20
843.8941950228856967
 30
0.0
 11
1965.069611389397096
 21
842.7973200228857422
 31
0.0
  0
LINE
  5
B27
  8
LAYER_1
 10
1965.069611389397096
 20
842.7973200228857422
 30
0.0
 11
1961.2216613893970134
 21
842.7973200228857422
 31
0.0
  0
LINE
  5
B28
  8
LAYER_1
 10
1961.2216613893970134
 20
842.7973200228857422
 30
0.0
 11
1962.4451213893969452
 21
847.636980022885723
 31
0.0
  0
ARC
  5
B29
  8
LAYER_1
 10
1971.6235366601970327
 20
844.2684119537181004
 30
0.0
 40
3.9858377333200852
 50
147.7525971632784945
 51
166.2771445676548865
  0
ARC
  5
B2A
  8
LAYER_1
 10
1970.7865881620709843
 20
844.7457014554690886
 30
0.0
 40
3.0236210073726211
 50
130.0690664146526956
 51
146.9395040129737993
  0
ARC
  5
B2B
  8
LAYER_1
 10
1970.6679123360470385
 20
844.8644168316703826
 30
0.0
 40
2.856415222553006
 50
88.5481201800107129
 51
129.7802089671683916
  0
ARC
  5
B2C
  8
LAYER_1
 10
1970.7937827281930367
 20
845.1137406202796001
 30
0.0
 40
2.606723398265244
 50
68.0444921811741068
 51
91.1759320652736704
  0
ARC
  5
B2D
  8
LAYER_1
 10
1971.1984280338770077
 20
846.2590778309117923
 30
0.0
 40
1.3941659989885511
 50
37.1528396799411595
 51
65.8688005586112695
  0
ARC
  5
B2E
  8
LAYER_1
 10
1971.2531060812409578
 20
846.3191154601387325
 30
0.0
 40
1.314410434001223
 50
34.8928281860851683
 51
36.506414491919621
  0
ARC
  5
B2F
  8
LAYER_1
 10
1971.0683235028259332
 20
846.208769375251677
 30
0.0
 40
1.5291716711393479
 50
4.7213392611364062
 51
34.3234785295064597
  0
ARC
  5
B30
  8
LAYER_1
 10
1969.7905890564459241
 20
846.0694185394415854
 30
0.0
 40
2.8142423131009191
 50
345.0625063153532892
 51
5.407625560347709
  0
ARC
  5
B31
  8
LAYER_1
 10
1968.2880848110960414
 20
846.3200100180215486
 30
0.0
 40
4.3329996056555373
 50
345.7505065124516932
 51
346.982463476576811
  0
ARC
  5
B32
  8
LAYER_1
 10
1968.3438371350139278
 20
846.2479893490391305
 30
0.0
 40
4.2616041275508802
 50
328.4923948782770822
 51
346.5045268133245031
  0
ARC
  5
B33
  8
LAYER_1
 10
1969.4551795387740185
 20
845.6598310101214793
 30
0.0
 40
3.0077745695565938
 50
323.2952654849224245
 51
326.9805880008760255
  0
ARC
  5
B34
  8
LAYER_1
 10
1969.5291502762290747
 20
845.5957029513906491
 30
0.0
 40
2.910150408362449
 50
301.5947601662210786
 51
323.4370500979970871
  0
ARC
  5
B35
  8
LAYER_1
 10
1969.5654892954160005
 20
845.5549591281474022
 30
0.0
 40
2.8564236955951618
 50
297.2942359294439143
 51
301.402064180884679
  0
ARC
  5
B36
  8
LAYER_1
 10
1969.642400342341034
 20
845.4373502903126791
 30
0.0
 40
2.7166789441641681
 50
274.4903292873178202
 51
296.9901681630230996
  0
ARC
  5
B37
  8
LAYER_1
 10
1969.5326188138149064
 20
846.3211984223936497
 30
0.0
 40
3.6066336187034871
 50
269.9800242771410126
 51
275.1297209887144959
  0
ARC
  5
B38
  8
LAYER_1
 10
1969.465921693602013
 20
845.4939917168298962
 30
0.0
 40
2.7801969535980229
 50
248.9055603910231014
 51
271.3487406626658185
  0
ARC
  5
B39
  8
LAYER_1
 10
1969.1116503141329304
 20
844.3303761108250001
 30
0.0
 40
1.5695361395516669
 50
239.6964235952756042
 51
245.6818838212263927
  0
ARC
  5
B3A
  8
LAYER_1
 10
1968.978801401417968
 20
844.0811398674377415
 30
0.0
 40
1.2873689557262209
 50
206.8460866261341948
 51
239.2040453520754966
  0
ARC
  5
B3B
  8
LAYER_1
 10
1969.3952639954300139
 20
844.3074442099809858
 30
0.0
 40
1.761198783842135
 50
196.7224245131980922
 51
207.296381144898703
  0
ARC
  5
B3C
  8
LAYER_1
 10
1969.7710206991100677
 20
844.3810789636927439
 30
0.0
 40
2.142581948199803
 50
170.1619169335594961
 51
195.7169537804969934
  0
ARC
  5
B3D
  8
LAYER_1
 10
1971.8788109775739485
 20
844.1622761484170496
 30
0.0
 40
4.2592158031455414
 50
165.7047646944494943
 51
172.106954922907704
  0
ARC
  5
B3E
  8
LAYER_1
 10
1971.7603912750109885
 20
844.4872950156991465
 30
0.0
 40
2.6950814305329751
 50
164.5735447702026875
 51
177.6191137185716116
  0
ARC
  5
B3F
  8
LAYER_1
 10
1970.0105370423709701
 20
844.5441819697973642
 30
0.0
 40
0.9445076402839903
 50
176.6572591304741024
 51
204.6174517497198906
  0
ARC
  5
B40
  8
LAYER_1
 10
1969.6693560146900381
 20
844.4289282613502792
 30
0.0
 40
0.5875149858623998
 50
208.2617181483039133
 51
257.2898344849836008
  0
ARC
  5
B41
  8
LAYER_1
 10
1969.7599332756349213
 20
844.7960636225162716
 30
0.0
 40
0.9656123893999508
 50
256.8400107176962024
 51
270.4021908845087978
  0
ARC
  5
B42
  8
LAYER_1
 10
1969.7663933729500059
 20
844.9555611292647654
 30
0.0
 40
1.1250861513243791
 50
270.0161952046494207
 51
313.8545177137089013
  0
ARC
  5
B43
  8
LAYER_1
 10
1969.6026814394369922
 20
845.0870190722581583
 30
0.0
 40
1.3335779702752319
 50
315.0135465052866834
 51
331.0666571104766831
  0
ARC
  5
B44
  8
LAYER_1
 10
1968.030280679128964
 20
845.9344897578765767
 30
0.0
 40
3.1197739376620861
 50
331.4160143473391145
 51
347.7094341875265968
  0
ARC
  5
B45
  8
LAYER_1
 10
1968.7808357846608942
 20
845.9037057078579664
 30
0.0
 40
2.3833992721031092
 50
344.5901647894662005
 51
358.2366466253549788
  0
ARC
  5
B46
  8
LAYER_1
 10
1970.2531051206190114
 20
845.8713238555744738
 30
0.0
 40
0.9109225736326367
 50
357.4228767549518011
 51
25.9275214688660007
  0
ARC
  5
B47
  8
LAYER_1
 10
1970.5519187650429558
 20
845.9759043663050306
 30
0.0
 40
0.5975807231223345
 50
29.4386399138181893
 51
77.7618383453013706
  0
ARC
  5
B48
  8
LAYER_1
 10
1970.4571362753119956
 20
845.5914727732912297
 30
0.0
 40
0.9934301130975516
 50
77.1194225658254169
 51
90.3887238516085745
  0
ARC
  5
B49
  8
LAYER_1
 10
1970.4546059574740866
 20
845.5070749135824144
 30
0.0
 40
1.077813329897028
 50
90.2237781727944963
 51
135.3506898898870077
  0
ARC
  5
B4A
  8
LAYER_1
 10
1970.6632154008570978
 20
845.2668325248247356
 30
0.0
 40
1.395268448852625
 50
134.352362677467994
 51
150.3132525896022003
  0
ARC
  5
B4B
  8
LAYER_1
 10
1971.859589037582964
 20
844.6032016788678902
 30
0.0
 40
2.763327926127598
 50
150.6447260190591066
 51
167.4385154248489016
  0
LINE
  5
B4C
  8
LAYER_1
 10
1973.5436963893969278
 20
847.636980022885723
 30
0.0
 11
1974.8606663893970108
 21
847.636980022885723
 31
0.0
  0
LINE
  5
B4D
  8
LAYER_1
 10
1974.8606663893970108
 20
847.636980022885723
 30
0.0
 11
1975.8998063893970993
 21
844.9624950228857188
 31
0.0
  0
LINE
  5
B4E
  8
LAYER_1
 10
1975.8998063893970993
 20
844.9624950228857188
 30
0.0
 11
1976.5762013893970561
 21
847.636980022885723
 31
0.0
  0
LINE
  5
B4F
  8
LAYER_1
 10
1976.5762013893970561
 20
847.636980022885723
 30
0.0
 11
1977.9088313893969371
 21
847.636980022885723
 31
0.0
  0
LINE
  5
B50
  8
LAYER_1
 10
1977.9088313893969371
 20
847.636980022885723
 30
0.0
 11
1976.6853713893970053
 21
842.7973200228857422
 31
0.0
  0
LINE
  5
B51
  8
LAYER_1
 10
1976.6853713893970053
 20
842.7973200228857422
 30
0.0
 11
1975.3527413893968969
 21
842.7973200228857422
 31
0.0
  0
LINE
  5
B52
  8
LAYER_1
 10
1975.3527413893968969
 20
842.7973200228857422
 30
0.0
 11
1974.318686389397044
 21
845.4574950228856096
 31
0.0
  0
LINE
  5
B53
  8
LAYER_1
 10
1974.318686389397044
 20
845.4574950228856096
 30
0.0
 11
1973.6467913893970945
 21
842.7973200228857422
 31
0.0
  0
LINE
  5
B54
  8
LAYER_1
 10
1973.6467913893970945
 20
842.7973200228857422
 30
0.0
 11
1972.3203713893969962
 21
842.7973200228857422
 31
0.0
  0
LINE
  5
B55
  8
LAYER_1
 10
1972.3203713893969962
 20
842.7973200228857422
 30
0.0
 11
1973.5436963893969278
 21
847.636980022885723
 31
0.0
  0
LINE
  5
B56
  8
LAYER_1
 10
1978.5233963893970213
 20
847.636980022885723
 30
0.0
 11
1982.3033063893969938
 21
847.636980022885723
 31
0.0
  0
LINE
  5
B57
  8
LAYER_1
 10
1982.3033063893969938
 20
847.636980022885723
 30
0.0
 11
1982.0420813893970262
 21
846.6040050228856444
 31
0.0
  0
LINE
  5
B58
  8
LAYER_1
 10
1982.0420813893970262
 20
846.6040050228856444
 30
0.0
 11
1979.6761613893970662
 21
846.6040050228856444
 31
0.0
  0
LINE
  5
B59
  8
LAYER_1
 10
1979.6761613893970662
 20
846.6040050228856444
 30
0.0
 11
1979.4825713893969805
 21
845.839185022885772
 31
0.0
  0
LINE
  5
B5A
  8
LAYER_1
 10
1979.4825713893969805
 20
845.839185022885772
 30
0.0
 11
1981.6804163893968962
 21
845.839185022885772
 31
0.0
  0
LINE
  5
B5B
  8
LAYER_1
 10
1981.6804163893968962
 20
845.839185022885772
 30
0.0
 11
1981.4309363893969476
 21
844.8504000228857649
 31
0.0
  0
LINE
  5
B5C
  8
LAYER_1
 10
1981.4309363893969476
 20
844.8504000228857649
 30
0.0
 11
1979.2325063893970309
 21
844.8504000228857649
 31
0.0
  0
LINE
  5
B5D
  8
LAYER_1
 10
1979.2325063893970309
 20
844.8504000228857649
 30
0.0
 11
1978.9909463893970951
 21
843.8941950228856967
 31
0.0
  0
LINE
  5
B5E
  8
LAYER_1
 10
1978.9909463893970951
 20
843.8941950228856967
 30
0.0
 11
1981.4254013893969386
 21
843.8941950228856967
 31
0.0
  0
LINE
  5
B5F
  8
LAYER_1
 10
1981.4254013893969386
 20
843.8941950228856967
 30
0.0
 11
1981.1486513893969459
 21
842.7973200228857422
 31
0.0
  0
LINE
  5
B60
  8
LAYER_1
 10
1981.1486513893969459
 20
842.7973200228857422
 30
0.0
 11
1977.3003413893970901
 21
842.7973200228857422
 31
0.0
  0
LINE
  5
B61
  8
LAYER_1
 10
1977.3003413893970901
 20
842.7973200228857422
 30
0.0
 11
1978.5233963893970213
 21
847.636980022885723
 31
0.0
  0
POLYLINE
  5
B62
  8
0
  6
BYBLOCK
 62
     0
 66
     1
 10
0.0
 20
0.0
 30
0.0
 70
     1
 40
0.4
 41
0.4
  0
VERTEX
  5
C23
  8
0
  6
BYBLOCK
 62
     0
 10
1944.5000428906600973
 20
859.8620067217651695
 30
0.0
 42
1.0
  0
VERTEX
  5
C24
  8
0
  6
BYBLOCK
 62
     0
 10
1944.1000428906600064
 20
859.8620067217651695
 30
0.0
 42
1.0
  0
SEQEND
  5
C25
  8
0
  6
BYBLOCK
 62
     0
  0
LINE
  5
B63
  8
0
  6
BYBLOCK
 62
     0
 10
1944.7000428906599154
 20
859.8620067217651695
 30
0.0
 11
1945.1000428906600064
 21
859.8620067217651695
 31
0.0
  0
POLYLINE
  5
B64
  8
0
  6
BYBLOCK
 62
     0
 66
     1
 10
0.0
 20
0.0
 30
0.0
 70
     1
 40
0.4
 41
0.4
  0
VERTEX
  5
C26
  8
0
  6
BYBLOCK
 62
     0
 10
1941.6000428906600064
 20
859.8620067217651695
 30
0.0
 42
1.0
  0
VERTEX
  5
C27
  8
0
  6
BYBLOCK
 62
     0
 10
1942.0000428906600973
 20
859.8620067217651695
 30
0.0
 42
1.0
  0
SEQEND
  5
C28
  8
0
  6
BYBLOCK
 62
     0
  0
LINE
  5
B65
  8
0
  6
BYBLOCK
 62
     0
 10
1941.4000428906599609
 20
859.8620067217651695
 30
0.0
 11
1941.0000428906600973
 21
859.8620067217651695
 31
0.0
  0
TEXT
  5
B66
  8
寸法
 62
     2
 10
1937.5750428906599154
 20
860.4870067217652831
 30
0.0
 40
3.0
  1
5
  7
EXTFONT
  0
POLYLINE
  5
B67
  8
0
  6
BYBLOCK
 62
     0
 66
     1
 10
0.0
 20
0.0
 30
0.0
 70
     1
 40
0.4
 41
0.4
  0
VERTEX
  5
C29
  8
0
  6
BYBLOCK
 62
     0
 10
1935.8000428906700563
 20
867.087390755896763
 30
0.0
 42
1.0
  0
VERTEX
  5
C2A
  8
0
  6
BYBLOCK
 62
     0
 10
1935.8000428906700563
 20
866.6873907558966721
 30
0.0
 42
1.0
  0
SEQEND
  5
C2B
  8
0
  6
BYBLOCK
 62
     0
  0
LINE
  5
B68
  8
0
  6
BYBLOCK
 62
     0
 10
1935.8000428906700563
 20
867.2873907558966948
 30
0.0
 11
1935.8000428906700563
 21
867.6873907558967858
 31
0.0
  0
POLYLINE
  5
B69
  8
0
  6
BYBLOCK
 62
     0
 66
     1
 10
0.0
 20
0.0
 30
0.0
 70
     1
 40
0.4000000000000002
 41
0.4000000000000002
  0
VERTEX
  5
C2C
  8
0
  6
BYBLOCK
 62
     0
 10
1935.8000428906700563
 20
926.6873907558967858
 30
0.0
 42
1.0
  0
VERTEX
  5
C2D
  8
0
  6
BYBLOCK
 62
     0
 10
1935.8000428906700563
 20
927.087390755896763
 30
0.0
 42
1.0
  0
SEQEND
  5
C2E
  8
0
  6
BYBLOCK
 62
     0
  0
LINE
  5
B6A
  8
0
  6
BYBLOCK
 62
     0
 10
1935.8000428906700563
 20
926.487390755896854
 30
0.0
 11
1935.8000428906700563
 21
926.087390755896763
 31
0.0
  0
TEXT
  5
B6B
  8
寸法
 62
     2
 10
1935.1750428906689194
 20
893.6373907558960354
 30
0.0
 40
3.0
  1
120
 50
90.0
  7
EXTFONT
  0
POLYLINE
  5
B6C
  8
0
  6
BYBLOCK
 62
     0
 66
     1
 10
0.0
 20
0.0
 30
0.0
 70
     1
 40
0.25
 41
0.25
  0
VERTEX
  5
C2F
  8
0
  6
BYBLOCK
 62
     0
 10
1943.7178928820219426
 20
911.7461724931356457
 30
0.0
 42
1.0
  0
VERTEX
  5
C30
  8
0
  6
BYBLOCK
 62
     0
 10
1943.5411161867250485
 20
911.569395797838979
 30
0.0
 42
1.0
  0
SEQEND
  5
C31
  8
0
  6
BYBLOCK
 62
     0
  0
LINE
  5
B6D
  8
0
  6
BYBLOCK
 62
     0
 10
1943.8062812296700486
 20
911.8345608407838654
 30
0.0
 11
1943.9830579249669427
 21
912.0113375360805321
 31
0.0
  0
LINE
  5
B6E
  8
DIM
  6
BYBLOCK
 62
     2
 10
1943.9830579249669427
 20
912.0113375360805321
 30
0.0
 11
1951.1287839275200895
 21
919.1570635386334516
 31
0.0
1001
ACAD
1000
DSTYLE
1002
{
1070
   340
1005
2F9
1002
}
  0
LINE
  5
B6F
  8
DIM
  6
BYBLOCK
 62
     2
 10
1951.1287839275200895
 20
919.1570635386334516
 30
0.0
 11
1952.3287839275199076
 21
919.1570635386334516
 31
0.0
1001
ACAD
1000
DSTYLE
1002
{
1070
   340
1005
2F9
1002
}
  0
POLYLINE
  5
B70
  8
0
  6
BYBLOCK
 62
     0
 66
     1
 10
0.0
 20
0.0
 30
0.0
 70
     1
 40
0.25
 41
0.25
  0
VERTEX
  5
C32
  8
0
  6
BYBLOCK
 62
     0
 10
1944.4760611674669235
 20
882.9638945139239468
 30
0.0
 42
1.0
  0
VERTEX
  5
C33
  8
0
  6
BYBLOCK
 62
     0
 10
1944.2992844721709389
 20
882.7871178186273937
 30
0.0
 42
1.0
  0
SEQEND
  5
C34
  8
0
  6
BYBLOCK
 62
     0
  0
LINE
  5
B71
  8
0
  6
BYBLOCK
 62
     0
 10
1944.564449515115939
 20
883.0522828615722801
 30
0.0
 11
1944.7412262104119236
 21
883.2290595568689469
 31
0.0
  0
LINE
  5
B72
  8
DIM
  6
BYBLOCK
 62
     2
 10
1944.7412262104119236
 20
883.2290595568689469
 30
0.0
 11
1951.8869522129650704
 21
890.3747855594216389
 31
0.0
1001
ACAD
1000
DSTYLE
1002
{
1070
   340
1005
2F9
1002
}
  0
LINE
  5
B73
  8
DIM
  6
BYBLOCK
 62
     2
 10
1951.8869522129650704
 20
890.3747855594216389
 30
0.0
 11
1953.0869522129648885
 21
890.3747855594216389
 31
0.0
1001
ACAD
1000
DSTYLE
1002
{
1070
   340
1005
2F9
1002
}
  0
POLYLINE
  5
B74
  8
0
  6
BYBLOCK
 62
     0
 66
     1
 10
0.0
 20
0.0
 30
0.0
 70
     1
 40
0.2
 41
0.2
  0
VERTEX
  5
C35
  8
0
  6
BYBLOCK
 62
     0
 10
1742.394141623645055
 20
866.987390755896854
 30
0.0
 42
1.0
  0
VERTEX
  5
C36
  8
0
  6
BYBLOCK
 62
     0
 10
1742.394141623645055
 20
866.7873907558968085
 30
0.0
 42
1.0
  0
SEQEND
  5
C37
  8
0
  6
BYBLOCK
 62
     0
  0
LINE
  5
B75
  8
0
  6
BYBLOCK
 62
     0
 10
1742.394141623645055
 20
867.087390755896763
 30
0.0
 11
1742.394141623645055
 21
867.2873907558966948
 31
0.0
  0
POLYLINE
  5
B76
  8
0
  6
BYBLOCK
 62
     0
 66
     1
 10
0.0
 20
0.0
 30
0.0
 70
     1
 40
0.2000000000000001
 41
0.2000000000000001
  0
VERTEX
  5
C38
  8
0
  6
BYBLOCK
 62
     0
 10
1742.394141623645055
 20
926.7873907558968085
 30
0.0
 42
1.0
  0
VERTEX
  5
C39
  8
0
  6
BYBLOCK
 62
     0
 10
1742.394141623645055
 20
926.987390755896854
 30
0.0
 42
1.0
  0
SEQEND
  5
C3A
  8
0
  6
BYBLOCK
 62
     0
  0
LINE
  5
B77
  8
0
  6
BYBLOCK
 62
     0
 10
1742.394141623645055
 20
926.6873907558967858
 30
0.0
 11
1742.394141623645055
 21
926.487390755896854
 31
0.0
  0
TEXT
  5
B78
  8
寸法
 62
     2
 10
1741.7233026059100212
 20
893.9880728841363862
 30
0.0
 40
2.399999999999999
  1
120
 50
90.0
  0
POLYLINE
  5
B79
  8
0
  6
BYBLOCK
 62
     0
 66
     1
 10
0.0
 20
0.0
 30
0.0
 70
     1
 40
0.2
 41
0.2
  0
VERTEX
  5
C3B
  8
0
  6
BYBLOCK
 62
     0
 10
1742.3900130762410754
 20
954.704333219634691
 30
0.0
 42
1.0
  0
VERTEX
  5
C3C
  8
0
  6
BYBLOCK
 62
     0
 10
1742.3900130762410754
 20
954.5043332196346455
 30
0.0
 42
1.0
  0
SEQEND
  5
C3D
  8
0
  6
BYBLOCK
 62
     0
  0
LINE
  5
B7A
  8
0
  6
BYBLOCK
 62
     0
 10
1742.3900130762410754
 20
954.8043332196346
 30
0.0
 11
1742.3900130762410754
 21
955.0043332196346455
 31
0.0
  0
POLYLINE
  5
B7B
  8
0
  6
BYBLOCK
 62
     0
 66
     1
 10
0.0
 20
0.0
 30
0.0
 70
     1
 40
0.2000000000000001
 41
0.2000000000000001
  0
VERTEX
  5
C3E
  8
0
  6
BYBLOCK
 62
     0
 10
1742.3900130762410754
 20
1014.5043332196339634
 30
0.0
 42
1.0
  0
VERTEX
  5
C3F
  8
0
  6
BYBLOCK
 62
     0
 10
1742.3900130762410754
 20
1014.704333219635032
 30
0.0
 42
1.0
  0
SEQEND
  5
C40
  8
0
  6
BYBLOCK
 62
     0
  0
LINE
  5
B7C
  8
0
  6
BYBLOCK
 62
     0
 10
1742.3900130762410754
 20
1014.4043332196340543
 30
0.0
 11
1742.3900130762410754
 21
1014.204333219635032
 31
0.0
  0
TEXT
  5
B7D
  8
寸法
 62
     2
 10
1741.7191740585060415
 20
981.7050153478742232
 30
0.0
 40
2.399999999999999
  1
120
 50
90.0
  0
POLYLINE
  5
B7E
  8
0
  6
BYBLOCK
 62
     0
 66
     1
 10
0.0
 20
0.0
 30
0.0
 70
     1
 40
0.4
 41
0.4
  0
VERTEX
  5
C41
  8
0
  6
BYBLOCK
 62
     0
 10
1944.5000428906610068
 20
947.7176639949432229
 30
0.0
 42
1.0
  0
VERTEX
  5
C42
  8
0
  6
BYBLOCK
 62
     0
 10
1944.1000428906600064
 20
947.7176639949432229
 30
0.0
 42
1.0
  0
SEQEND
  5
C43
  8
0
  6
BYBLOCK
 62
     0
  0
LINE
  5
B7F
  8
0
  6
BYBLOCK
 62
     0
 10
1944.7000428906599154
 20
947.7176639949432229
 30
0.0
 11
1945.1000428906609159
 21
947.7176639949432229
 31
0.0
  0
POLYLINE
  5
B80
  8
0
  6
BYBLOCK
 62
     0
 66
     1
 10
0.0
 20
0.0
 30
0.0
 70
     1
 40
0.4
 41
0.4
  0
VERTEX
  5
C44
  8
0
  6
BYBLOCK
 62
     0
 10
1941.6000428906609159
 20
947.7176639949432229
 30
0.0
 42
1.0
  0
VERTEX
  5
C45
  8
0
  6
BYBLOCK
 62
     0
 10
1942.0000428906600973
 20
947.7176639949432229
 30
0.0
 42
1.0
  0
SEQEND
  5
C46
  8
0
  6
BYBLOCK
 62
     0
  0
LINE
  5
B81
  8
0
  6
BYBLOCK
 62
     0
 10
1941.4000428906599609
 20
947.7176639949432229
 30
0.0
 11
1941.0000428906600973
 21
947.7176639949432229
 31
0.0
  0
TEXT
  5
B82
  8
寸法
 62
     2
 10
1937.5750428906599154
 20
948.3426639949431092
 30
0.0
 40
3.0
  1
5
  7
EXTFONT
  0
POLYLINE
  5
B83
  8
0
  6
BYBLOCK
 62
     0
 66
     1
 10
0.0
 20
0.0
 30
0.0
 70
     1
 40
0.4
 41
0.4
  0
VERTEX
  5
C47
  8
0
  6
BYBLOCK
 62
     0
 10
1935.8000428906709658
 20
954.9430480290748164
 30
0.0
 42
1.0
  0
VERTEX
  5
C48
  8
0
  6
BYBLOCK
 62
     0
 10
1935.8000428906709658
 20
954.5430480290747255
 30
0.0
 42
1.0
  0
SEQEND
  5
C49
  8
0
  6
BYBLOCK
 62
     0
  0
LINE
  5
B84
  8
0
  6
BYBLOCK
 62
     0
 10
1935.8000428906709658
 20
955.1430480290747482
 30
0.0
 11
1935.8000428906709658
 21
955.5430480290747255
 31
0.0
  0
POLYLINE
  5
B85
  8
0
  6
BYBLOCK
 62
     0
 66
     1
 10
0.0
 20
0.0
 30
0.0
 70
     1
 40
0.4000000000000002
 41
0.4000000000000002
  0
VERTEX
  5
C4A
  8
0
  6
BYBLOCK
 62
     0
 10
1935.8000428906709658
 20
1014.5430480290740434
 30
0.0
 42
1.0
  0
VERTEX
  5
C4B
  8
0
  6
BYBLOCK
 62
     0
 10
1935.8000428906709658
 20
1014.9430480290750438
 30
0.0
 42
1.0
  0
SEQEND
  5
C4C
  8
0
  6
BYBLOCK
 62
     0
  0
LINE
  5
B86
  8
0
  6
BYBLOCK
 62
     0
 10
1935.8000428906709658
 20
1014.3430480290750211
 30
0.0
 11
1935.8000428906709658
 21
1013.9430480290750438
 31
0.0
  0
TEXT
  5
B87
  8
寸法
 62
     2
 10
1935.1750428906709658
 20
981.4930480290738615
 30
0.0
 40
3.0
  1
120
 50
90.0
  7
EXTFONT
  0
POLYLINE
  5
B88
  8
0
  6
BYBLOCK
 62
     0
 66
     1
 10
0.0
 20
0.0
 30
0.0
 70
     1
 40
0.25
 41
0.25
  0
VERTEX
  5
C4D
  8
0
  6
BYBLOCK
 62
     0
 10
1943.7178928820219426
 20
999.6018297663135854
 30
0.0
 42
1.0
  0
VERTEX
  5
C4E
  8
0
  6
BYBLOCK
 62
     0
 10
1943.5411161867250485
 20
999.4250530710170324
 30
0.0
 42
1.0
  0
SEQEND
  5
C4F
  8
0
  6
BYBLOCK
 62
     0
  0
LINE
  5
B89
  8
0
  6
BYBLOCK
 62
     0
 10
1943.8062812296709581
 20
999.6902181139619188
 30
0.0
 11
1943.9830579249669427
 21
999.8669948092584718
 31
0.0
  0
LINE
  5
B8A
  8
DIM
  6
BYBLOCK
 62
     2
 10
1943.9830579249669427
 20
999.8669948092584718
 30
0.0
 11
1951.1287839275200895
 21
1007.0127208118110502
 31
0.0
1001
ACAD
1000
DSTYLE
1002
{
1070
   340
1005
2F9
1002
}
  0
LINE
  5
B8B
  8
DIM
  6
BYBLOCK
 62
     2
 10
1951.1287839275200895
 20
1007.0127208118110502
 30
0.0
 11
1952.3287839275199076
 21
1007.0127208118110502
 31
0.0
1001
ACAD
1000
DSTYLE
1002
{
1070
   340
1005
2F9
1002
}
  0
POLYLINE
  5
B8C
  8
0
  6
BYBLOCK
 62
     0
 66
     1
 10
0.0
 20
0.0
 30
0.0
 70
     1
 40
0.25
 41
0.25
  0
VERTEX
  5
C50
  8
0
  6
BYBLOCK
 62
     0
 10
1944.4760611674680604
 20
970.8195517871020002
 30
0.0
 42
1.0
  0
VERTEX
  5
C51
  8
0
  6
BYBLOCK
 62
     0
 10
1944.2992844721709389
 20
970.6427750918052197
 30
0.0
 42
1.0
  0
SEQEND
  5
C52
  8
0
  6
BYBLOCK
 62
     0
  0
LINE
  5
B8D
  8
0
  6
BYBLOCK
 62
     0
 10
1944.564449515115939
 20
970.9079401347503335
 30
0.0
 11
1944.7412262104119236
 21
971.0847168300468866
 31
0.0
  0
LINE
  5
B8E
  8
DIM
  6
BYBLOCK
 62
     2
 10
1944.7412262104119236
 20
971.0847168300468866
 30
0.0
 11
1951.8869522129650704
 21
978.2304428325995787
 31
0.0
1001
ACAD
1000
DSTYLE
1002
{
1070
   340
1005
2F9
1002
}
  0
LINE
  5
B8F
  8
DIM
  6
BYBLOCK
 62
     2
 10
1951.8869522129650704
 20
978.2304428325995787
 30
0.0
 11
1953.0869522129648885
 21
978.2304428325995787
 31
0.0
1001
ACAD
1000
DSTYLE
1002
{
1070
   340
1005
2F9
1002
}
  0
ENDSEC
  0
EOF
