  0
SECTION
  2
HEADER
  9
$ACADVER
  1
AC1009
  9
$INSBASE
 10
0.0
 20
0.0
 30
0.0
  9
$EXTMIN
 10
-7.3040250337280384
 20
-9.3283701622667632
 30
0.0
  9
$EXTMAX
 10
289.6959749662718764
 20
200.6716298377332919
 30
0.0
  9
$LIMMIN
 10
0.0
 20
0.0
  9
$LIMMAX
 10
12.0
 20
9.0
  9
$ORTHOMODE
 70
     0
  9
$REGENMODE
 70
     1
  9
$FILLMODE
 70
     1
  9
$QTEXTMODE
 70
     0
  9
$MIRRTEXT
 70
     1
  9
$DRAGMODE
 70
     2
  9
$LTSCALE
 40
0.3
  9
$OSMODE
 70
  4095
  9
$ATTMODE
 70
     1
  9
$TEXTSIZE
 40
3.0
  9
$TRACEWID
 40
0.05
  9
$TEXTSTYLE
  7
EXTFONT
  9
$CLAYER
  8
本体1
  9
$CELTYPE
  6
BYLAYER
  9
$CECOLOR
 62
   256
  9
$DIMSCALE
 40
1.0
  9
$DIMASZ
 40
0.8
  9
$DIMEXO
 40
2.0
  9
$DIMDLI
 40
0.35
  9
$DIMRND
 40
0.0
  9
$DIMDLE
 40
0.0
  9
$DIMEXE
 40
0.0
  9
$DIMTP
 40
0.0
  9
$DIMTM
 40
0.0
  9
$DIMTXT
 40
2.399999999999999
  9
$DIMCEN
 40
0.09
  9
$DIMTSZ
 40
0.0
  9
$DIMTOL
 70
     0
  9
$DIMLIM
 70
     0
  9
$DIMTIH
 70
     0
  9
$DIMTOH
 70
     0
  9
$DIMSE1
 70
     0
  9
$DIMSE2
 70
     0
  9
$DIMTAD
 70
     3
  9
$DIMZIN
 70
     8
  9
$DIMBLK
  1
DOT
  9
$DIMASO
 70
     1
  9
$DIMSHO
 70
     1
  9
$DIMPOST
  1

  9
$DIMAPOST
  1

  9
$DIMALT
 70
     0
  9
$DIMALTD
 70
     2
  9
$DIMALTF
 40
25.3999999999999986
  9
$DIMLFAC
 40
2.0
  9
$DIMTOFL
 70
     0
  9
$DIMTVP
 40
0.0
  9
$DIMTIX
 70
     0
  9
$DIMSOXD
 70
     0
  9
$DIMSAH
 70
     0
  9
$DIMBLK1
  1

  9
$DIMBLK2
  1

  9
$DIMSTYLE
  2
STANDARD
  9
$DIMCLRD
 70
     2
  9
$DIMCLRE
 70
     2
  9
$DIMCLRT
 70
     2
  9
$DIMTFAC
 40
1.0
  9
$DIMGAP
 40
0.6
  9
$LUNITS
 70
     2
  9
$LUPREC
 70
     4
  9
$SKETCHINC
 40
0.1
  9
$FILLETRAD
 40
0.0
  9
$AUNITS
 70
     0
  9
$AUPREC
 70
     0
  9
$MENU
  1
.
  9
$ELEVATION
 40
0.0
  9
$PELEVATION
 40
0.0
  9
$THICKNESS
 40
0.0
  9
$LIMCHECK
 70
     0
  9
$BLIPMODE
 70
     0
  9
$CHAMFERA
 40
0.0
  9
$CHAMFERB
 40
0.0
  9
$SKPOLY
 70
     0
  9
$TDCREATE
 40
2452461.646342592779547
  9
$TDUPDATE
 40
2460382.7434837957844138
  9
$TDINDWG
 40
1.9162139467999999
  9
$TDUSRTIMER
 40
1.9162139467999999
  9
$USRTIMER
 70
     1
  9
$ANGBASE
 50
0.0
  9
$ANGDIR
 70
     0
  9
$PDMODE
 70
     0
  9
$PDSIZE
 40
0.0
  9
$PLINEWID
 40
0.0
  9
$COORDS
 70
     1
  9
$SPLFRAME
 70
     0
  9
$SPLINETYPE
 70
     6
  9
$SPLINESEGS
 70
     8
  9
$ATTDIA
 70
     1
  9
$ATTREQ
 70
     1
  9
$HANDLING
 70
     1
  9
$HANDSEED
  5
1D9FA
  9
$SURFTAB1
 70
     6
  9
$SURFTAB2
 70
     6
  9
$SURFTYPE
 70
     6
  9
$SURFU
 70
     6
  9
$SURFV
 70
     6
  9
$UCSNAME
  2

  9
$UCSORG
 10
0.0
 20
0.0
 30
0.0
  9
$UCSXDIR
 10
1.0
 20
0.0
 30
0.0
  9
$UCSYDIR
 10
0.0
 20
1.0
 30
0.0
  9
$PUCSNAME
  2

  9
$PUCSORG
 10
0.0
 20
0.0
 30
0.0
  9
$PUCSXDIR
 10
1.0
 20
0.0
 30
0.0
  9
$PUCSYDIR
 10
0.0
 20
1.0
 30
0.0
  9
$USERI1
 70
     0
  9
$USERI2
 70
     0
  9
$USERI3
 70
     0
  9
$USERI4
 70
     0
  9
$USERI5
 70
     0
  9
$USERR1
 40
0.0
  9
$USERR2
 40
0.0
  9
$USERR3
 40
0.0
  9
$USERR4
 40
0.0
  9
$USERR5
 40
0.0
  9
$WORLDVIEW
 70
     1
  9
$SHADEDGE
 70
     3
  9
$SHADEDIF
 70
    70
  9
$TILEMODE
 70
     1
  9
$MAXACTVP
 70
    64
  9
$PLIMCHECK
 70
     0
  9
$PEXTMIN
 10
1.0000000000000000E+20
 20
1.0000000000000000E+20
 30
1.0000000000000000E+20
  9
$PEXTMAX
 10
-1.0000000000000000E+20
 20
-1.0000000000000000E+20
 30
-1.0000000000000000E+20
  9
$PLIMMIN
 10
0.0
 20
0.0
  9
$PLIMMAX
 10
12.0
 20
9.0
  9
$UNITMODE
 70
     0
  9
$VISRETAIN
 70
     1
  9
$PLINEGEN
 70
     0
  9
$PSLTSCALE
 70
     1
  0
ENDSEC
  0
SECTION
  2
TABLES
  0
TABLE
  2
VPORT
 70
     1
  0
VPORT
  2
*ACTIVE
 70
     0
 10
0.0
 20
0.0
 11
1.0
 21
1.0
 12
221.7240681587597066
 22
92.2479863166258838
 13
0.0
 23
0.0
 14
1.0
 24
1.0
 15
0.0
 25
0.0
 16
0.0
 26
0.0
 36
1.0
 17
0.0
 27
0.0
 37
0.0
 40
313.1813577129556165
 41
2.0110837438423639
 42
50.0
 43
0.0
 44
0.0
 50
0.0
 51
0.0
 71
     0
 72
   100
 73
     1
 74
     1
 75
     0
 76
     0
 77
     0
 78
     0
  0
ENDTAB
  0
TABLE
  2
LTYPE
 70
     3
  0
LTYPE
  2
CONTINUOUS
 70
     0
  3
Solid line
 72
    65
 73
     0
 40
0.0
  0
LTYPE
  2
DASHED2
 70
     0
  3
Dashed (.5x) _ _ _ _ _ _ _ _ _ _ _ _ _ _ _ _ _
 72
    65
 73
     2
 40
0.375
 49
0.25
 49
-0.125
  0
ENDTAB
  0
TABLE
  2
LAYER
 70
    10
  0
LAYER
  2
0
 70
     0
 62
     7
  6
CONTINUOUS
  0
LAYER
  2
枠ライン
 70
     0
 62
     9
  6
CONTINUOUS
  0
LAYER
  2
枠文字
 70
     0
 62
     4
  6
CONTINUOUS
  0
LAYER
  2
本体1
 70
     0
 62
     7
  6
CONTINUOUS
  0
LAYER
  2
DEFPOINTS
 70
     0
 62
     7
  6
CONTINUOUS
  0
LAYER
  2
注釈
 70
     0
 62
     2
  6
CONTINUOUS
  0
LAYER
  2
本体2
 70
     0
 62
    11
  6
CONTINUOUS
  0
LAYER
  2
ビス類
 70
     0
 62
     3
  6
CONTINUOUS
  0
LAYER
  2
寸法
 70
     0
 62
     2
  6
CONTINUOUS
  0
LAYER
  2
壁
 70
     0
 62
     6
  6
CONTINUOUS
  0
ENDTAB
  0
TABLE
  2
STYLE
 70
     3
  0
STYLE
  2
STANDARD
 70
     0
 40
0.0
 41
1.0
 50
0.0
 71
     0
 42
0.0
  3
txt.shx
  4
extfont.shx
  0
STYLE
  2
角ゴ
 70
     0
 40
0.0
 41
1.0
 50
0.0
 71
     0
 42
2.5
  3
txt.shx
  4
extfont.shx
  0
STYLE
  2
EXTFONT
 70
     0
 40
2.399999999999999
 41
1.0
 50
0.0
 71
     0
 42
3.0
  3
txt
  4
extfont
  0
ENDTAB
  0
TABLE
  2
VIEW
 70
     2
  0
ENDTAB
  0
TABLE
  2
UCS
 70
     0
  0
ENDTAB
  0
TABLE
  2
APPID
 70
    15
  0
APPID
  2
ACAD
 70
     0
  0
APPID
  2
ACAD_PSEXT
 70
     0
  0
APPID
  2
ACAD_EXEMPT_FROM_CAD_STANDARDS
 70
     0
  0
APPID
  2
ACAD_NAV_VCDISPLAY
 70
     0
  0
APPID
  2
ACAD_MLEADERVER
 70
     0
  0
APPID
  2
ACADANNOMONITORALERTICONDI
 70
     0
  0
APPID
  2
GRADIENTCOLOR1ACI
 70
     0
  0
APPID
  2
GRADIENTCOLOR2ACI
 70
     0
  0
APPID
  2
HATCHBACKGROUNDCOLOR
 70
     0
  0
APPID
  2
ACAD_TC
 70
     0
  0
APPID
  2
ACADANNOTATIVE
 70
     0
  0
APPID
  2
ACAD_DSTYLE_DIMJAG
 70
     0
  0
APPID
  2
ACAD_DSTYLE_DIMTALN
 70
     0
  0
APPID
  2
ACAECLAYERSTANDARD
 70
     0
  0
APPID
  2
ACCMTRANSPARENCY
 70
     0
  0
ENDTAB
  0
TABLE
  2
DIMSTYLE
 70
     4
  0
DIMSTYLE
  2
STANDARD
 70
     0
  3

  4

  5

  6

  7

 40
1.0
 41
0.18
 42
0.0625
 43
0.38
 44
0.18
 45
0.0
 46
0.0
 47
0.0
 48
0.0
140
0.18
141
0.09
142
0.0
143
25.3999999999999986
144
1.0
145
0.0
146
1.0
147
0.09
 71
     0
 72
     0
 73
     1
 74
     1
 75
     0
 76
     0
 77
     0
 78
     0
170
     0
171
     2
172
     0
173
     0
174
     0
175
     0
176
     0
177
     0
178
     0
  0
DIMSTYLE
  2
ANNOTATIVE
 70
     0
  3

  4

  5

  6

  7

 40
0.0
 41
2.5
 42
0.625
 43
3.75
 44
1.25
 45
0.0
 46
0.0
 47
0.0
 48
0.0
140
2.5
141
2.5
142
0.0
143
0.03937007874016
144
1.0
145
0.0
146
1.0
147
0.625
 71
     0
 72
     0
 73
     0
 74
     0
 75
     0
 76
     0
 77
     1
 78
     8
170
     0
171
     3
172
     1
173
     0
174
     0
175
     0
176
     0
177
     0
178
     0
  0
DIMSTYLE
  2
ISO-25
 70
     0
  3

  4

  5

  6

  7

 40
1.0
 41
2.5
 42
0.625
 43
3.75
 44
1.25
 45
0.0
 46
0.0
 47
0.0
 48
0.0
140
2.5
141
2.5
142
0.0
143
0.03937007874016
144
1.0
145
0.0
146
1.0
147
0.625
 71
     0
 72
     0
 73
     0
 74
     0
 75
     0
 76
     0
 77
     1
 78
     8
170
     0
171
     3
172
     1
173
     0
174
     0
175
     0
176
     0
177
     0
178
     0
  0
DIMSTYLE
  2
STANDARD$0
 70
     0
  3

  4

  5

  6
DOT
  7
DOT
 40
1.0
 41
0.4
 42
2.0
 43
3.75
 44
0.0
 45
0.0
 46
0.0
 47
0.0
 48
0.0
140
2.399999999999999
141
2.5
142
0.0
143
0.03937
144
1.0
145
0.0
146
1.0
147
0.625
 71
     0
 72
     0
 73
     0
 74
     0
 75
     0
 76
     0
 77
     3
 78
     0
170
     0
171
     2
172
     0
173
     1
174
     0
175
     0
176
     2
177
     2
178
     2
  0
ENDTAB
  0
ENDSEC
  0
SECTION
  2
BLOCKS
  0
BLOCK
  8
0
  2
$MODEL_SPACE
 70
     0
 10
0.0
 20
0.0
 30
0.0
  3
$MODEL_SPACE
  1

  0
ENDBLK
  5
20
  8
0
  0
BLOCK
 67
     1
  8
0
  2
$PAPER_SPACE
 70
     0
 10
0.0
 20
0.0
 30
0.0
  3
$PAPER_SPACE
  1

  0
ENDBLK
  5
1C
 67
     1
  8
0
  0
BLOCK
  8
0
  2
_DOT
 70
     0
 10
0.0
 20
0.0
 30
0.0
  3
_DOT
  1

  0
POLYLINE
  5
26A6
  8
0
  6
BYBLOCK
 62
     0
 66
     1
 10
0.0
 20
0.0
 30
0.0
 70
     1
 40
0.5
 41
0.5
  0
VERTEX
  5
1D979
  8
0
  6
BYBLOCK
 62
     0
 10
-0.25
 20
0.0
 30
0.0
 42
1.0
  0
VERTEX
  5
1D97A
  8
0
  6
BYBLOCK
 62
     0
 10
0.25
 20
0.0
 30
0.0
 42
1.0
  0
SEQEND
  5
1D97B
  8
0
  6
BYBLOCK
 62
     0
  0
LINE
  5
26A7
  8
0
  6
BYBLOCK
 62
     0
 10
-0.5
 20
0.0
 30
0.0
 11
-1.0
 21
0.0
 31
0.0
  0
ENDBLK
  5
26A9
  8
0
  0
BLOCK
  8
0
  2
A$C1FFA3DF8
 70
     0
 10
0.0
 20
0.0
 30
0.0
  3
A$C1FFA3DF8
  1

  0
LINE
  5
1BBF9
  8
ビス類
  6
CONTINUOUS
 62
     3
 10
-0.733095620652307
 20
5.193847729980261
 30
0.0
 11
-0.7330991206522981
 21
8.221316882628912
 31
0.0
  0
LINE
  5
1BBFA
  8
ビス類
  6
CONTINUOUS
 62
     3
 10
0.7668768793477057
 20
5.193847729980261
 30
0.0
 11
0.7668768793477057
 21
8.221316882628912
 31
0.0
  0
LINE
  5
1BBFB
  8
ビス類
  6
CONTINUOUS
 62
     3
 10
0.0537406308005188
 20
8.8318879029096706
 30
0.0
 11
0.0537406308005188
 21
7.230622057717027
 31
0.0
  0
LINE
  5
1BBFC
  8
ビス類
  6
CONTINUOUS
 62
     3
 10
-0.0199628721050544
 20
8.8318879029096706
 30
0.0
 11
-0.0199628721050544
 21
7.2190680925821189
 31
0.0
  0
LINE
  5
1BBFD
  8
ビス類
  6
CONTINUOUS
 62
     3
 10
0.2778929324837804
 20
6.1701320544177909
 30
0.0
 11
-0.3085260367537899
 21
5.2783418997494493
 31
0.0
  0
LINE
  5
1BBFE
  8
ビス類
  6
CONTINUOUS
 62
     3
 10
0.3583904910820479
 20
6.157759912518598
 30
0.0
 11
-0.2252315854862559
 21
5.270223101410008
 31
0.0
  0
LINE
  5
1BBFF
  8
ビス類
  6
CONTINUOUS
 62
     3
 10
-0.0199628721050544
 20
7.2190680925821189
 30
0.0
 11
0.2778929324837804
 21
6.1701320544177909
 31
0.0
  0
LINE
  5
1BC00
  8
ビス類
  6
CONTINUOUS
 62
     3
 10
0.0537406308005188
 20
7.230622057717027
 30
0.0
 11
0.3583904910820479
 21
6.157759912518598
 31
0.0
  0
LINE
  5
1BC01
  8
ビス類
  6
CONTINUOUS
 62
     3
 10
0.1642958851588787
 20
8.8318879029096706
 30
0.0
 11
-0.1305181264634143
 21
8.8318879029096706
 31
0.0
  0
LINE
  5
1BC02
  8
ビス類
  6
CONTINUOUS
 62
     3
 10
-0.1305181264634143
 20
8.8318879029096706
 30
0.0
 11
-0.7330991206522981
 21
8.221316882628912
 31
0.0
  0
LINE
  5
1BC03
  8
ビス類
  6
CONTINUOUS
 62
     3
 10
0.1642958851588787
 20
8.8318879029096706
 30
0.0
 11
0.7668768793477057
 21
8.221316882628912
 31
0.0
  0
LINE
  5
1BC04
  8
ビス類
  6
CONTINUOUS
 62
     3
 10
-1.351236512209139
 20
2.3770396214514729
 30
0.0
 11
-1.227882189404623
 21
2.3770396214514729
 31
0.0
  0
LINE
  5
1BC05
  8
ビス類
  6
CONTINUOUS
 62
     3
 10
-1.351236512209139
 20
3.3770396214514729
 30
0.0
 11
-1.227882189404623
 21
3.3770396214514729
 31
0.0
  0
LINE
  5
1BC06
  8
ビス類
  6
CONTINUOUS
 62
     3
 10
-0.5859513823529028
 20
4.6263265530400863
 30
0.0
 11
-1.351236512209139
 21
2.3770396214514729
 31
0.0
  0
LINE
  5
1BC07
  8
ビス類
  6
CONTINUOUS
 62
     3
 10
-0.7157760741950483
 20
1.0
 30
0.0
 11
-1.7262704843855641
 21
0.0000163474886676
 31
0.0
  0
LINE
  5
1BC08
  8
ビス類
  6
CONTINUOUS
 62
     3
 10
-0.0094037651900294
 20
3.6592687229121452
 30
0.0
 11
-0.0094037651900294
 21
2.5160817154321631
 31
0.0
  0
LINE
  5
1BC09
  8
ビス類
  6
CONTINUOUS
 62
     3
 10
-0.0831072680956027
 20
3.6785876198912031
 30
0.0
 11
-0.0831072680956027
 21
2.5160817154321631
 31
0.0
  0
LINE
  5
1BC0A
  8
ビス類
  6
CONTINUOUS
 62
     3
 10
0.6197326410483015
 20
4.263769833440449
 30
0.0
 11
0.6197326410482447
 21
2.7103729547848161
 31
0.0
  0
LINE
  5
1BC0B
  8
ビス類
  6
CONTINUOUS
 62
     3
 10
0.6197326410483015
 20
4.2637698334403629
 30
0.0
 11
1.2616634481000231
 21
2.3770396214514729
 31
0.0
  0
LINE
  5
1BC0C
  8
ビス類
  6
CONTINUOUS
 62
     3
 10
0.6197326410483015
 20
4.6263265530400863
 30
0.0
 11
1.385017770904539
 21
2.3770396214514729
 31
0.0
  0
LINE
  5
1BC0D
  8
ビス類
  6
CONTINUOUS
 62
     3
 10
-0.5859513823529028
 20
4.2637698334404774
 30
0.0
 11
-0.5859513823528461
 21
2.7103729547848161
 31
0.0
  0
LINE
  5
1BC0E
  8
ビス類
  6
CONTINUOUS
 62
     3
 10
-0.5859513823529028
 20
4.2637698334403629
 30
0.0
 11
-1.227882189404623
 21
2.3770396214514729
 31
0.0
  0
LINE
  5
1BC0F
  8
ビス類
  6
CONTINUOUS
 62
     3
 10
0.7668768793477057
 20
2.7103729547848161
 30
0.0
 11
0.7668768793477057
 21
1.0
 31
0.0
  0
LINE
  5
1BC10
  8
ビス類
  6
CONTINUOUS
 62
     3
 10
0.7668768793477057
 20
2.0893951959903321
 30
0.0
 11
1.0174164683996301
 21
1.0
 31
0.0
  0
LINE
  5
1BC11
  8
ビス類
  6
CONTINUOUS
 62
     3
 10
-0.733095620652307
 20
2.7103729547848161
 30
0.0
 11
-0.733095620652307
 21
1.0
 31
0.0
  0
LINE
  5
1BC12
  8
ビス類
  6
CONTINUOUS
 62
     3
 10
-0.733095620652307
 20
2.0893951959903321
 30
0.0
 11
-0.9836352097042322
 21
1.0
 31
0.0
  0
LINE
  5
1BC13
  8
ビス類
  6
CONTINUOUS
 62
     3
 10
-0.0094037651900294
 20
2.5160817154321631
 30
0.0
 11
-0.0831072680956027
 21
2.5160817154321631
 31
0.0
  0
LINE
  5
1BC14
  8
ビス類
  6
CONTINUOUS
 62
     3
 10
-0.5859513823528461
 20
2.7103729547848161
 30
0.0
 11
-0.733095620652307
 21
2.7103729547848161
 31
0.0
  0
LINE
  5
1BC15
  8
ビス類
  6
CONTINUOUS
 62
     3
 10
1.385017770904539
 20
2.3770396214514729
 30
0.0
 11
1.2616634481000231
 21
2.3770396214514729
 31
0.0
  0
LINE
  5
1BC16
  8
ビス類
  6
CONTINUOUS
 62
     3
 10
1.385017770904539
 20
3.3770396214514729
 30
0.0
 11
1.2616634481000231
 21
3.3770396214514729
 31
0.0
  0
LINE
  5
1BC17
  8
ビス類
  6
CONTINUOUS
 62
     3
 10
0.6197326410482447
 20
2.7103729547848161
 30
0.0
 11
0.7668768793477057
 21
2.7103729547848161
 31
0.0
  0
LINE
  5
1BC18
  8
ビス類
  6
CONTINUOUS
 62
     3
 10
0.2416658764835233
 20
4.1257680115746762
 30
0.0
 11
-0.0094037651900294
 21
3.6592687229121452
 31
0.0
  0
LINE
  5
1BC19
  8
ビス類
  6
CONTINUOUS
 62
     3
 10
0.1599077377717322
 20
4.1301210136370781
 30
0.0
 11
-0.0831072680956027
 21
3.6785876198912031
 31
0.0
  0
LINE
  5
1BC1A
  8
本体1
  6
CONTINUOUS
 62
     3
 10
1.7262704753816811
 20
-0.0000163474885824
 30
0.0
 11
-1.7262704843855641
 21
0.0000163474886676
 31
0.0
  0
LINE
  5
1BC1B
  8
ビス類
  6
CONTINUOUS
 62
     3
 10
0.7365083559391792
 20
1.0
 30
0.0
 11
1.7262704753816811
 21
-0.0000163474885824
 31
0.0
  0
LINE
  5
1BC1C
  8
ビス類
  6
CONTINUOUS
 62
     3
 10
-0.733095620652307
 20
5.193847729980261
 30
0.0
 11
-1.351236512209139
 21
3.3770396214514729
 31
0.0
  0
LINE
  5
1BC1D
  8
ビス類
  6
CONTINUOUS
 62
     3
 10
0.7668768793477057
 20
5.193847729980261
 30
0.0
 11
1.385017770904539
 21
3.3770396214514729
 31
0.0
  0
LINE
  5
1BC1E
  8
ビス類
  6
CONTINUOUS
 62
     3
 10
0.6197326410483015
 20
5.2637698334403629
 30
0.0
 11
1.2616634481000231
 21
3.3770396214514729
 31
0.0
  0
LINE
  5
1BC1F
  8
ビス類
  6
CONTINUOUS
 62
     3
 10
-0.5859513823529028
 20
5.2637698334403629
 30
0.0
 11
-1.227882189404623
 21
3.3770396214514729
 31
0.0
  0
LINE
  5
1BC20
  8
ビス類
  6
CONTINUOUS
 62
     3
 10
-0.2252315854862559
 20
5.270223101410008
 30
0.0
 11
0.2416658764835233
 21
4.1257680115746762
 31
0.0
  0
LINE
  5
1BC21
  8
ビス類
  6
CONTINUOUS
 62
     3
 10
-0.2252315854862559
 20
5.270223101410008
 30
0.0
 11
0.2416658764835233
 21
4.1257680115746762
 31
0.0
  0
LINE
  5
1BC22
  8
ビス類
  6
CONTINUOUS
 62
     3
 10
-0.3085260367537899
 20
5.2783418997494493
 30
0.0
 11
0.1599077377717322
 21
4.1301210136370781
 31
0.0
  0
LINE
  5
1BC23
  8
ビス類
  6
CONTINUOUS
 62
     3
 10
-0.5859513823529028
 20
5.2637698334403629
 30
0.0
 11
-0.5859513823529028
 21
4.6263265530400863
 31
0.0
  0
LINE
  5
1BC24
  8
ビス類
  6
CONTINUOUS
 62
     3
 10
0.6197326410483015
 20
5.2637698334403629
 30
0.0
 11
0.6197326410483015
 21
4.6263265530400863
 31
0.0
  0
ENDBLK
  5
1BC25
  8
0
  0
BLOCK
  8
0
  2
A$C67946A3D
 70
     0
 10
0.0
 20
0.0
 30
0.0
  3
A$C67946A3D
  1

  0
LINE
  5
1BC28
  8
ビス類
  6
CONTINUOUS
 62
     3
 10
0.7718939900084365
 20
1.4999893319002511
 30
0.0
 11
2.2565340815180539
 21
-0.0000320696895528
 31
0.0
  0
LINE
  5
1BC29
  8
ビス類
  6
CONTINUOUS
 62
     3
 10
-0.7407680655847459
 20
1.4999893319002511
 30
0.0
 11
-2.2565344598444881
 21
-0.0000106680998044
 31
0.0
  0
LINE
  5
1BC2A
  8
本体1
  6
CONTINUOUS
 62
     3
 10
2.2565128993815051
 20
-0.0000106680998044
 30
0.0
 11
-2.2565128993815611
 21
0.0000106680998044
 31
0.0
  0
LINE
  5
1BC2B
  8
ビス類
  6
CONTINUOUS
 62
     3
 10
0.4133974447125297
 20
9.2551874135269543
 30
0.0
 11
-0.4662310091438826
 21
7.9175021815244389
 31
0.0
  0
LINE
  5
1BC2C
  8
ビス類
  6
CONTINUOUS
 62
     3
 10
0.5341437826098741
 20
9.2366292006781521
 30
0.0
 11
-0.3412893322425248
 21
7.9053239840152676
 31
0.0
  0
LINE
  5
1BC2D
  8
ビス類
  6
CONTINUOUS
 62
     3
 10
-1.1030853849916289
 20
7.790760926870659
 30
0.0
 11
-1.103090634991587
 21
12.3319646558436204
 31
0.0
  0
LINE
  5
1BC2E
  8
ビス類
  6
CONTINUOUS
 62
     3
 10
1.1468733650083891
 20
7.790760926870659
 30
0.0
 11
1.1468733650083891
 21
12.3319646558436204
 31
0.0
  0
LINE
  5
1BC2F
  8
ビス類
  6
CONTINUOUS
 62
     3
 10
0.9261570075591976
 20
6.3956440820609544
 30
0.0
 11
0.9261570075591976
 21
4.0655487640774757
 31
0.0
  0
LINE
  5
1BC30
  8
ビス類
  6
CONTINUOUS
 62
     3
 10
-0.8823690275425518
 20
6.395644082060981
 30
0.0
 11
-0.8823690275424381
 21
4.0655487640774757
 31
0.0
  0
LINE
  5
1BC31
  8
ビス類
  6
CONTINUOUS
 62
     3
 10
0.9261570075593111
 20
6.3956440820608131
 30
0.0
 11
1.8890532181368931
 21
3.5655487640774761
 31
0.0
  0
LINE
  5
1BC32
  8
ビス類
  6
CONTINUOUS
 62
     3
 10
0.9261570075593111
 20
6.9394791614603832
 30
0.0
 11
2.0740847023436682
 21
3.5655487640774761
 31
0.0
  0
LINE
  5
1BC33
  8
ビス類
  6
CONTINUOUS
 62
     3
 10
-0.0175476017982987
 20
5.4888924162684969
 30
0.0
 11
-0.0175476017982987
 21
3.7741119050484979
 31
0.0
  0
LINE
  5
1BC34
  8
ビス類
  6
CONTINUOUS
 62
     3
 10
-0.1281028561566586
 20
5.517870761737071
 30
0.0
 11
-0.1281028561566586
 21
3.7741119050484979
 31
0.0
  0
LINE
  5
1BC35
  8
ビス類
  6
CONTINUOUS
 62
     3
 10
-0.8823690275425518
 20
6.3956440820608131
 30
0.0
 11
-1.845265238120134
 21
3.5655487640774761
 31
0.0
  0
LINE
  5
1BC36
  8
ビス類
  6
CONTINUOUS
 62
     3
 10
-0.8823690275425518
 20
6.9394791614603832
 30
0.0
 11
-2.0302967223269088
 21
3.5655487640774761
 31
0.0
  0
LINE
  5
1BC37
  8
ビス類
  6
CONTINUOUS
 62
     3
 10
-0.8823690275424381
 20
4.0655487640774757
 30
0.0
 11
-1.1030853849916289
 21
4.0655487640774757
 31
0.0
  0
LINE
  5
1BC38
  8
ビス類
  6
CONTINUOUS
 62
     3
 10
-1.1030853849916289
 20
1.4999893319002511
 30
0.0
 11
1.1468733650083891
 21
1.4999893319002511
 31
0.0
  0
LINE
  5
1BC39
  8
ビス類
  6
CONTINUOUS
 62
     3
 10
-2.0302967223269088
 20
3.5655487640774761
 30
0.0
 11
-1.845265238120134
 21
3.5655487640774761
 31
0.0
  0
LINE
  5
1BC3A
  8
ビス類
  6
CONTINUOUS
 62
     3
 10
-1.1030853849916289
 20
3.1340821258857812
 30
0.0
 11
-1.478894768569545
 21
1.4999893319002511
 31
0.0
  0
LINE
  5
1BC3B
  8
ビス類
  6
CONTINUOUS
 62
     3
 10
-1.1030853849916289
 20
4.0655487640774757
 30
0.0
 11
-1.1030853849916289
 21
1.4999893319002511
 31
0.0
  0
LINE
  5
1BC3C
  8
ビス類
  6
CONTINUOUS
 62
     3
 10
0.9261570075591976
 20
4.0655487640774757
 30
0.0
 11
1.1468733650083891
 21
4.0655487640774757
 31
0.0
  0
LINE
  5
1BC3D
  8
ビス類
  6
CONTINUOUS
 62
     3
 10
-0.0175476017982987
 20
3.7741119050484979
 30
0.0
 11
-0.1281028561566586
 21
3.7741119050484979
 31
0.0
  0
LINE
  5
1BC3E
  8
ビス類
  6
CONTINUOUS
 62
     3
 10
2.0740847023436682
 20
3.5655487640774761
 30
0.0
 11
1.8890532181368931
 21
3.5655487640774761
 31
0.0
  0
LINE
  5
1BC3F
  8
ビス類
  6
CONTINUOUS
 62
     3
 10
1.1468733650083891
 20
3.1340821258857812
 30
0.0
 11
1.5226827485863039
 21
1.4999893319002511
 31
0.0
  0
LINE
  5
1BC40
  8
ビス類
  6
CONTINUOUS
 62
     3
 10
1.1468733650083891
 20
4.0655487640774757
 30
0.0
 11
1.1468733650083891
 21
1.4999893319002511
 31
0.0
  0
LINE
  5
1BC41
  8
ビス類
  6
CONTINUOUS
 62
     3
 10
-0.8823690275425518
 20
7.8956440820608131
 30
0.0
 11
-1.845265238120134
 21
5.0655487640774757
 31
0.0
  0
LINE
  5
1BC42
  8
ビス類
  6
CONTINUOUS
 62
     3
 10
-2.0302967223269088
 20
5.0655487640774757
 30
0.0
 11
-1.845265238120134
 21
5.0655487640774757
 31
0.0
  0
LINE
  5
1BC43
  8
ビス類
  6
CONTINUOUS
 62
     3
 10
-1.1030853849916289
 20
7.790760926870659
 30
0.0
 11
-2.0302967223269088
 21
5.0655487640774757
 31
0.0
  0
LINE
  5
1BC44
  8
ビス類
  6
CONTINUOUS
 62
     3
 10
0.3590568607120872
 20
6.1886413492622676
 30
0.0
 11
-0.0175476017982987
 21
5.4888924162684969
 31
0.0
  0
LINE
  5
1BC45
  8
ビス類
  6
CONTINUOUS
 62
     3
 10
0.2364196526444289
 20
6.1951708523558864
 30
0.0
 11
-0.1281028561566586
 21
5.517870761737071
 31
0.0
  0
LINE
  5
1BC46
  8
ビス類
  6
CONTINUOUS
 62
     3
 10
2.0740847023436682
 20
5.0655487640774757
 30
0.0
 11
1.8890532181368931
 21
5.0655487640774757
 31
0.0
  0
LINE
  5
1BC47
  8
ビス類
  6
CONTINUOUS
 62
     3
 10
0.9261570075593111
 20
7.8956440820608131
 30
0.0
 11
1.8890532181368931
 21
5.0655487640774757
 31
0.0
  0
LINE
  5
1BC48
  8
ビス類
  6
CONTINUOUS
 62
     3
 10
-0.3412893322425248
 20
7.9053239840152676
 30
0.0
 11
0.3590568607120872
 21
6.1886413492622676
 31
0.0
  0
LINE
  5
1BC49
  8
ビス類
  6
CONTINUOUS
 62
     3
 10
-0.3412893322425248
 20
7.9053239840152676
 30
0.0
 11
0.3590568607120872
 21
6.1886413492622676
 31
0.0
  0
LINE
  5
1BC4A
  8
ビス類
  6
CONTINUOUS
 62
     3
 10
-0.4662310091438826
 20
7.9175021815244389
 30
0.0
 11
0.2364196526444289
 21
6.1951708523558864
 31
0.0
  0
LINE
  5
1BC4B
  8
ビス類
  6
CONTINUOUS
 62
     3
 10
0.9261570075593111
 20
7.8956440820608131
 30
0.0
 11
0.9261570075593111
 21
6.9394791614604108
 31
0.0
  0
LINE
  5
1BC4C
  8
ビス類
  6
CONTINUOUS
 62
     3
 10
-0.8823690275425518
 20
7.8956440820608131
 30
0.0
 11
-0.8823690275425518
 21
6.9394791614604108
 31
0.0
  0
LINE
  5
1BC4D
  8
ビス類
  6
CONTINUOUS
 62
     3
 10
1.1468733650083891
 20
7.790760926870659
 30
0.0
 11
2.0740847023436682
 21
5.0655487640774757
 31
0.0
  0
LINE
  5
1BC4E
  8
ビス類
  6
CONTINUOUS
 62
     3
 10
0.0771689921875236
 20
13.2478211862647601
 30
0.0
 11
0.0771689921875236
 21
10.8459224184757907
 31
0.0
  0
LINE
  5
1BC4F
  8
ビス類
  6
CONTINUOUS
 62
     3
 10
-0.0333862621708363
 20
13.2478211862647601
 30
0.0
 11
-0.0333862621708363
 21
10.8285914707734303
 31
0.0
  0
LINE
  5
1BC50
  8
ビス類
  6
CONTINUOUS
 62
     3
 10
-0.0333862621708363
 20
10.8285914707734303
 30
0.0
 11
0.4133974447125297
 21
9.2551874135269543
 31
0.0
  0
LINE
  5
1BC51
  8
ビス類
  6
CONTINUOUS
 62
     3
 10
0.0771689921875236
 20
10.8459224184757907
 30
0.0
 11
0.5341437826098741
 21
9.2366292006781521
 31
0.0
  0
LINE
  5
1BC52
  8
ビス類
  6
CONTINUOUS
 62
     3
 10
-0.1992191437083761
 20
13.2478211862647601
 30
0.0
 11
-1.103090634991587
 21
12.3319646558436204
 31
0.0
  0
LINE
  5
1BC53
  8
ビス類
  6
CONTINUOUS
 62
     3
 10
0.2430018737250634
 20
13.2478211862647601
 30
0.0
 11
1.1468733650083891
 21
12.3319646558436204
 31
0.0
  0
LINE
  5
1BC54
  8
ビス類
  6
CONTINUOUS
 62
     3
 10
0.2430018737250634
 20
13.2478211862647601
 30
0.0
 11
-0.1992191437083761
 21
13.2478211862647601
 31
0.0
  0
ENDBLK
  5
1BC55
  8
0
  0
BLOCK
  8
0
  2
*U19
 70
     1
 10
0.0
 20
0.0
 30
0.0
  3
*U19
  1

  0
TEXT
  5
1D9BB
  8
0
 62
     2
 10
34.9408243753249366
 20
138.5380607169269922
 30
0.0
 40
2.399999999999999
  1
3
 50
90.0
  7
角ゴ
  0
ENDBLK
  5
1D9BD
  8
0
  0
BLOCK
  8
0
  2
*U20
 70
     1
 10
0.0
 20
0.0
 30
0.0
  3
*U20
  1

  0
TEXT
  5
1D9BF
  8
0
 62
     2
 10
34.9408243753249366
 20
130.4401440502610967
 30
0.0
 40
2.399999999999999
  1
7
 50
90.0
  7
角ゴ
  0
ENDBLK
  5
1D9C1
  8
0
  0
BLOCK
  8
0
  2
*U21
 70
     1
 10
0.0
 20
0.0
 30
0.0
  3
*U21
  1

  0
TEXT
  5
1D9C3
  8
0
 62
     2
 10
187.6296343413841896
 20
49.8868641131372286
 30
0.0
 40
2.399999999999999
  1
7
  7
角ゴ
  0
ENDBLK
  5
1D9C5
  8
0
  0
BLOCK
  8
0
  2
*U22
 70
     1
 10
0.0
 20
0.0
 30
0.0
  3
*U22
  1

  0
TEXT
  5
1D9C7
  8
0
 62
     2
 10
195.8546343413846955
 20
49.8868641131372286
 30
0.0
 40
2.399999999999999
  1
3
  7
角ゴ
  0
ENDBLK
  5
1D9C9
  8
0
  0
BLOCK
  8
0
  2
*U23
 70
     1
 10
0.0
 20
0.0
 30
0.0
  3
*U23
  1

  0
TEXT
  5
1D9CB
  8
0
 62
     2
 10
183.80463434140799
 20
70.5348059276651043
 30
0.0
 40
2.399999999999999
  1
100
 50
90.0
  7
角ゴ
  0
ENDBLK
  5
1D9CD
  8
0
  0
BLOCK
  8
0
  2
*U24
 70
     1
 10
0.0
 20
0.0
 30
0.0
  3
*U24
  1

  0
TEXT
  5
1D9CF
  8
0
 62
     2
 10
34.9408577086577381
 20
56.9744310755271073
 30
0.0
 40
2.399999999999999
  1
8
 50
90.0
  7
角ゴ
  0
ENDBLK
  5
1D9D1
  8
0
  0
BLOCK
  8
0
  2
*U25
 70
     1
 10
0.0
 20
0.0
 30
0.0
  3
*U25
  1

  0
TEXT
  5
1D9D3
  8
0
 62
     2
 10
73.0991910419903235
 20
49.8994144088602596
 30
0.0
 40
2.399999999999999
  1
200
  7
角ゴ
  0
ENDBLK
  5
1D9D5
  8
0
  0
BLOCK
  8
0
  2
*U26
 70
     1
 10
0.0
 20
0.0
 30
0.0
  3
*U26
  1

  0
TEXT
  5
1D9D7
  8
0
 62
     2
 10
34.9408910420089782
 20
63.80794774219369
 30
0.0
 40
2.399999999999999
  1
40
 50
90.0
  7
角ゴ
  0
ENDBLK
  5
1D9D9
  8
0
  0
BLOCK
  8
0
  2
*U27
 70
     1
 10
0.0
 20
0.0
 30
0.0
  3
*U27
  1

  0
TEXT
  5
1D9DB
  8
0
 62
     2
 10
29.440824375341581
 20
70.541081075526634
 30
0.0
 40
2.399999999999999
  1
100
 50
90.0
  7
角ゴ
  0
ENDBLK
  5
1D9DD
  8
0
  0
BLOCK
  8
0
  2
*U28
 70
     1
 10
0.0
 20
0.0
 30
0.0
  3
*U28
  1

  0
TEXT
  5
1D9DF
  8
0
 62
     2
 10
34.9408910420089782
 20
78.9412644088600928
 30
0.0
 40
2.399999999999999
  1
52
 50
90.0
  7
角ゴ
  0
ENDBLK
  5
1D9E1
  8
0
  0
BLOCK
  8
0
  2
*U29
 70
     1
 10
0.0
 20
0.0
 30
0.0
  3
*U29
  1

  0
TEXT
  5
1D9E3
  8
0
 62
     2
 10
205.5367974904210939
 20
61.7650016870677092
 30
0.0
 40
2.399999999999999
  1
45
 50
90.0
  7
角ゴ
  0
ENDBLK
  5
1D9E5
  8
0
  0
BLOCK
  8
0
  2
*U30
 70
     1
 10
0.0
 20
0.0
 30
0.0
  3
*U30
  1

  0
TEXT
  5
1D9E7
  8
0
 62
     2
 10
205.5367974904210939
 20
78.4379435015956261
 30
0.0
 40
2.399999999999999
  1
55
 50
90.0
  7
角ゴ
  0
ENDBLK
  5
1D9E9
  8
0
  0
BLOCK
  8
0
  2
*U31
 70
     1
 10
0.0
 20
0.0
 30
0.0
  3
*U31
  1

  0
TEXT
  5
1D9EB
  8
寸法
 62
     2
 10
97.4908243753247206
 20
148.8009285941321025
 30
0.0
 40
2.399999999999999
  1
51.3
  7
角ゴ
  0
ENDBLK
  5
1D9ED
  8
0
  0
BLOCK
  8
0
  2
*U32
 70
     1
 10
0.0
 20
0.0
 30
0.0
  3
*U32
  1

  0
TEXT
  5
1D9EF
  8
寸法
 62
     2
 10
47.9074910419912428
 20
148.8009285941321025
 30
0.0
 40
2.399999999999999
  1
51.3
  7
角ゴ
  0
ENDBLK
  5
1D9F1
  8
0
  0
BLOCK
  8
0
  2
*U33
 70
     1
 10
0.0
 20
0.0
 30
0.0
  3
*U33
  1

  0
TEXT
  5
1D9F3
  8
寸法
 62
     2
 10
72.2991577086575319
 20
148.8009285941321025
 30
0.0
 40
2.399999999999999
  1
97.5
  7
角ゴ
  0
ENDBLK
  5
1D9F5
  8
0
  0
BLOCK
  8
0
  2
*U34
 70
     1
 10
0.0
 20
0.0
 30
0.0
  3
*U34
  1

  0
TEXT
  5
1D9F7
  8
0
 62
     2
 10
73.0991577086584385
 20
127.0901440502612019
 30
0.0
 40
2.399999999999999
  1
200
  7
角ゴ
  0
ENDBLK
  5
1D9F9
  8
0
  0
ENDSEC
  0
SECTION
  2
ENTITIES
  0
LINE
  5
22F6
  8
枠ライン
 10
280.2241381179027258
 20
191.8168196486840884
 30
0.0
 11
280.2241412306689767
 21
-0.0004000000044471
 31
0.0
  0
LINE
  5
22F7
  8
枠ライン
 10
0.0
 20
0.0
 30
0.0
 11
0.0
 21
191.8168196486840884
 31
0.0
  0
LINE
  5
26A0
  8
枠ライン
 10
280.2241381179027258
 20
191.8168196486840884
 30
0.0
 11
0.0
 21
191.8168196486840884
 31
0.0
  0
TEXT
  5
3C9E
  8
枠文字
 10
138.822427919332398
 20
10.3446541382321602
 30
0.0
 40
1.9678500000000001
  1
TITLE
  7
角ゴ
  0
TEXT
  5
3C9F
  8
枠文字
 10
138.8224279193323127
 20
4.0258470499713894
 30
0.0
 40
1.9678500000000001
  1
PART 
  7
角ゴ
  0
LINE
  5
3CA0
  8
枠ライン
 10
280.2241350051364179
 20
12.6813646578057106
 30
0.0
 11
-0.000003112766251
 21
12.6817646578057293
 31
0.0
  0
LINE
  5
3CA1
  8
枠ライン
 10
194.5054481662903925
 20
6.3407839637663983
 30
0.0
 11
137.8214279193323932
 21
6.3407839637663983
 31
0.0
  0
LINE
  5
3CA2
  8
枠ライン
 10
0.0
 20
0.0
 30
0.0
 11
280.2241412306689767
 21
-0.0004000000044471
 31
0.0
  0
LINE
  5
3CA3
  8
枠ライン
 10
0.0000007758133052
 20
8.4545622215522371
 30
0.0
 11
71.7627740030122254
 21
8.4545622215522371
 31
0.0
  0
LINE
  5
3CA4
  8
枠ライン
 10
0.0000007758133052
 20
4.2274622215522291
 30
0.0
 11
71.7627740030122254
 21
4.2274622215522291
 31
0.0
  0
TEXT
  5
3CD5
  8
枠文字
 10
90.503570114432577
 20
10.2041513463232096
 30
0.0
 40
1.9678500000000001
  1
DATE
  7
角ゴ
  0
TEXT
  5
3CD6
  8
枠文字
 10
90.503568412104471
 20
3.6550634634396308
 30
0.0
 40
1.9678500000000001
  1
DRAWING
  7
角ゴ
  0
LINE
  5
3CD7
  8
枠ライン
 10
89.2631684121045481
 20
6.3409232334790602
 30
0.0
 11
116.5223478258347001
 21
6.3407232334790526
 31
0.0
  0
LINE
  5
3CD8
  8
枠ライン
 10
71.7627701144326693
 20
0.0004000000043902
 30
0.0
 11
71.7627701144326693
 21
12.6816622215577901
 31
0.0
  0
LINE
  5
3CD9
  8
枠ライン
 10
71.7627701144326693
 20
12.6816622215577901
 30
0.0
 11
71.7627701144326693
 21
0.0004000000043902
 31
0.0
  0
LINE
  5
3CDA
  8
枠ライン
 10
71.7627701144326693
 20
0.0000000000044338
 30
0.0
 11
71.7627701144326693
 21
12.6816622215577901
 31
0.0
  0
LINE
  5
3CDB
  8
枠ライン
 10
71.7627701144326693
 20
12.6816622215577901
 30
0.0
 11
71.7627701144326693
 21
0.0000000000044338
 31
0.0
  0
LINE
  5
3CDC
  8
枠ライン
 10
89.2631701144326826
 20
12.6816372409831501
 30
0.0
 11
89.2631701144326826
 21
0.0000000000044338
 31
0.0
  0
LINE
  5
3CDD
  8
枠ライン
 10
74.7628701144326442
 20
0.0000000000044338
 30
0.0
 11
74.7628701144326442
 21
12.6816579391286801
 31
0.0
  0
LINE
  5
3CDE
  8
枠ライン
 10
74.7628701144326442
 20
12.6816579391286801
 30
0.0
 11
74.7628701144326442
 21
0.0000000000044338
 31
0.0
  0
TEXT
  5
3CE0
  8
枠文字
 10
72.4756294477659964
 20
2.6360622831575138
 30
0.0
 40
1.686729999999999
  1
図
  7
角ゴ
 72
     1
 11
73.2627701144326551
 21
2.6360622831575138
 31
0.0
  0
TEXT
  5
3CE1
  8
枠文字
 10
72.4756294477659964
 20
8.9612622831575663
 30
0.0
 40
1.686729999999999
  1
検
  7
角ゴ
 72
     1
 11
73.2627701144326551
 21
8.9612622831575663
 31
0.0
  0
LINE
  5
3CE2
  8
枠ライン
 10
71.7627701144326693
 20
11.2508200000044098
 30
0.0
 11
71.7627701144326693
 21
12.6816622215577901
 31
0.0
  0
LINE
  5
3CE3
  8
枠ライン
 10
116.5223571369476048
 20
12.6815983304350102
 30
0.0
 11
116.5223385147217954
 21
-0.0001518634769013
 31
0.0
  0
LINE
  5
3CE4
  8
枠ライン
 10
137.8214279193325069
 20
12.6815679275283593
 30
0.0
 11
137.8214279193323932
 21
0.0000000000044338
 31
0.0
  0
LINE
  5
3CE5
  8
枠ライン
 10
137.8214279193323932
 20
0.0000000000044338
 30
0.0
 11
137.8214279193325069
 21
12.6815679275283593
 31
0.0
  0
TEXT
  5
3CE8
  8
枠文字
 10
117.6730699410807972
 20
10.2041513463232096
 30
0.0
 40
1.9678500000000001
  1
SCALE
  7
角ゴ
  0
LINE
  5
3CEA
  8
枠ライン
 10
137.8214279193323932
 20
7.5000200000043833
 30
0.0
 11
137.8214279193323932
 21
12.6815679275283593
 31
0.0
  0
TEXT
  5
3CF6
  8
枠文字
 10
149.4665955294451862
 20
7.291840056299975
 30
0.0
 40
2.399999999999999
  1
　
  0
TEXT
  5
3CF7
  8
枠文字
 10
149.4665955294451862
 20
0.9869750776638851
 30
0.0
 40
2.399999999999999
  1
サイン詳細図
  7
角ゴ
  0
LINE
  5
3CFB
  8
枠ライン
 10
194.5054481662903925
 20
7.499620000004426
 30
0.0
 11
194.5054481662903925
 21
-0.0003999999955795
 31
0.0
  0
LINE
  5
3E51
  8
枠ライン
 10
194.5054481662903925
 20
12.6814870151264305
 30
0.0
 11
194.5054481662903925
 21
7.499620000004426
 31
0.0
  0
LINE
  5
3F23
  8
枠ライン
 10
259.4774481662904009
 20
-0.0003999999955795
 30
0.0
 11
259.4774481662904009
 21
12.6813942722236295
 31
0.0
  0
TEXT
  5
403F
  8
枠文字
 10
260.5414481662904791
 20
9.8598913884809463
 30
0.0
 40
1.9678500000000001
  1
No.
  7
角ゴ
  0
TEXT
  5
1BB2B
  8
枠文字
 10
149.4665948894422058
 20
7.3276285217771706
 30
0.0
 40
2.399999868099338
  1
WA100
  7
角ゴ
  0
TEXT
  5
1BB43
  8
枠文字
 10
120.5319206936313066
 20
1.759054700772019
 30
0.0
 40
2.3999898197019371
  1
1:3（A4）
  7
角ゴ
 72
     1
 11
127.1718925281400061
 21
1.759054700772019
 31
0.0
  0
LINE
  5
1D158
  8
壁
 10
125.3089273235649017
 20
143.5362118621260947
 30
0.0
 11
118.2378595116995967
 21
136.4651440502613013
 31
0.0
  0
LINE
  5
1D159
  8
壁
 10
122.8089273235653991
 20
143.5362118621260947
 30
0.0
 11
115.7378595116995967
 21
136.4651440502613013
 31
0.0
  0
LINE
  5
1D15A
  8
壁
 10
19.145158416450041
 20
136.4651440502613013
 30
0.0
 11
127.7401983527519036
 21
136.4651440502613013
 31
0.0
  0
LINE
  5
1D15B
  8
壁
 10
33.1954266225078527
 20
143.5362118621260947
 30
0.0
 11
26.1243588106429989
 21
136.4651440502613013
 31
0.0
  0
LINE
  5
1D15C
  8
壁
 10
30.6954266225078491
 20
143.5362118621260947
 30
0.0
 11
23.6243588106420894
 21
136.4651440502613013
 31
0.0
  0
LINE
  5
1D15D
  8
壁
 10
28.1954266225069503
 20
143.5362118621260947
 30
0.0
 11
21.1243588106420894
 21
136.4651440502613013
 31
0.0
  0
LINE
  5
1D15E
  8
注釈
 62
     7
 10
193.429634341384201
 20
56.2618641131372215
 30
0.0
 11
193.429634341384201
 21
89.6077477421930553
 31
0.0
  0
LINE
  5
1D160
  8
壁
 10
127.8089273235649017
 20
143.5362118621260947
 30
0.0
 11
120.7378595116995967
 21
136.4651440502613013
 31
0.0
  0
LINE
  5
1D161
  8
壁
 10
201.5007021532499891
 20
107.1118669824900991
 30
0.0
 11
194.4296343413847126
 21
100.0407991706240978
 31
0.0
  0
LINE
  5
1D162
  8
壁
 10
201.5007021532499891
 20
104.6118669824900991
 30
0.0
 11
194.4296343413847126
 21
97.5407991706241546
 31
0.0
  0
LINE
  5
1D163
  8
壁
 10
201.5007021532499891
 20
102.1118669824900991
 30
0.0
 11
194.4296343413847126
 21
95.0407991706241546
 31
0.0
  0
LINE
  5
1D164
  8
注釈
 62
     7
 10
193.429634341384201
 20
89.6077477421930553
 30
0.0
 11
191.0963010080506876
 21
89.6077477421930553
 31
0.0
  0
LINE
  5
1D165
  8
壁
 10
194.4296343413847126
 20
107.2129823259868999
 30
0.0
 11
194.4296343413847126
 21
35.633073561236067
 31
0.0
  0
LINE
  5
1D166
  8
壁
 10
201.5007021532499891
 20
47.8962204376342697
 30
0.0
 11
194.4296343413847126
 21
40.8251526257689719
 31
0.0
  0
LINE
  5
1D167
  8
壁
 10
201.5007021532499891
 20
50.3962204376342697
 30
0.0
 11
194.4296343413847126
 21
43.3251526257689719
 31
0.0
  0
LINE
  5
1D168
  8
壁
 10
201.5007021532499891
 20
45.3962204376342697
 30
0.0
 11
194.4296343413847126
 21
38.3251526257689719
 31
0.0
  0
LINE
  5
1D16A
  8
注釈
 62
    11
 10
52.6445261778079612
 20
135.4651440502613013
 30
0.0
 11
52.6445261778079612
 21
136.4651440502613013
 31
0.0
  0
LINE
  5
1D16B
  8
注釈
 62
    11
 10
99.3202781534036063
 20
135.4651440502613013
 30
0.0
 11
99.3202781534036063
 21
136.4651440502613013
 31
0.0
  0
LINE
  5
1D16C
  8
注釈
 62
    11
 10
57.6445261778088707
 20
135.4651440502613013
 30
0.0
 11
58.6445261778088707
 21
136.4651440502613013
 31
0.0
  0
LINE
  5
1D16D
  8
注釈
 62
    11
 10
94.329363462332708
 20
135.4651440502613013
 30
0.0
 11
93.329363462332708
 21
136.4651440502613013
 31
0.0
  0
LINE
  5
1D16E
  8
注釈
 62
    11
 10
193.429634341384201
 20
66.4862058463671701
 30
0.0
 11
194.4296343413847126
 21
66.4862058463671701
 31
0.0
  0
LINE
  5
1D16F
  8
注釈
 62
    11
 10
193.429634341384201
 20
81.1433646937122148
 30
0.0
 11
194.4296343413847126
 21
81.1433646937122148
 31
0.0
  0
LINE
  5
1D171
  8
注釈
 62
     7
 10
192.429634341384201
 20
58.261897446470023
 30
0.0
 11
192.4296684498935122
 21
72.9288974464699322
 31
0.0
  0
LINE
  5
1D172
  8
注釈
 62
     7
 10
191.7629510080508908
 20
58.261897446470023
 30
0.0
 11
191.7629843413845947
 21
72.9288974464699322
 31
0.0
  0
LINE
  5
1D173
  8
注釈
 62
     7
 10
191.0963010080506876
 20
56.2618641131372215
 30
0.0
 11
191.0963010080506876
 21
89.6077477421930553
 31
0.0
  0
LINE
  5
1D174
  8
本体2
 10
192.4296676747179049
 20
72.9288974464699322
 30
0.0
 11
191.7629510080508908
 21
72.9288974464699322
 31
0.0
  0
LINE
  5
1D175
  8
本体2
 10
192.429634341384201
 20
58.261897446470023
 30
0.0
 11
191.7629176747176132
 21
58.261897446470023
 31
0.0
  0
LINE
  5
1D176
  8
本体2
 10
191.7629510080508908
 20
72.9288974464699322
 30
0.0
 11
192.4296676747179049
 21
72.9288974464699322
 31
0.0
  0
LINE
  5
1D177
  8
0
 10
192.3463093413841989
 20
72.6423723626329547
 30
0.0
 11
192.3462760080508929
 21
58.4305553777431825
 31
0.0
  0
LINE
  5
1D178
  8
0
 10
191.8463093413845968
 20
72.6423735353661186
 30
0.0
 11
191.8462760080514045
 21
58.4305565504761333
 31
0.0
  0
LINE
  5
1D179
  8
0
 10
191.8463093413845968
 20
72.6423735353661186
 30
0.0
 11
192.3463093413841989
 21
72.6423723626329547
 31
0.0
  0
LINE
  5
1D17A
  8
0
 10
191.8462760080514045
 20
58.4305565504761333
 30
0.0
 11
192.3462760080508929
 21
58.4305553777431825
 31
0.0
  0
LINE
  5
1D17D
  8
本体1
 10
109.2324910419909969
 20
56.2744144088602525
 30
0.0
 11
42.5658243753240271
 21
56.2744144088602525
 31
0.0
  0
LINE
  5
1D17E
  8
本体1
 10
42.5658243753240271
 20
56.2744144088602525
 30
0.0
 11
42.5658243753240271
 21
89.6077477421930553
 31
0.0
  0
LINE
  5
1D17F
  8
本体1
 10
42.5658243753240271
 20
89.6077477421930553
 30
0.0
 11
109.2324910419909969
 21
89.6077477421930553
 31
0.0
  0
LINE
  5
1D180
  8
本体1
 10
109.2324910419909969
 20
89.6077477421930553
 30
0.0
 11
109.2324910419909969
 21
56.2744144088602525
 31
0.0
  0
LINE
  5
1D181
  8
本体1
 10
42.5658243753240271
 20
58.9411144088602512
 30
0.0
 11
109.2324910419909969
 21
58.9411144088602512
 31
0.0
  0
LINE
  5
1D182
  8
本体1
 10
109.2324910419909969
 20
72.2747810755271303
 30
0.0
 11
42.5658243753240271
 21
72.2747810755271303
 31
0.0
  0
LINE
  5
1D183
  8
本体1
 10
109.2324910419909969
 20
89.6077477421930553
 30
0.0
 11
42.5658577086568286
 21
89.6077477421930553
 31
0.0
  0
ARC
  5
1D184
  8
本体1
 10
42.5658715089310817
 20
65.6079615424679332
 30
0.0
 40
2.4999861997640038
 50
359.9996837192687167
 51
90.0003162807182235
  0
ARC
  5
1D185
  8
本体1
 10
42.5658767572448369
 20
65.6079620269071029
 30
0.0
 40
2.499980951453074
 50
269.9995634351648164
 51
359.9996726159643003
  0
ARC
  5
1D186
  8
本体1
 10
109.2324799761667009
 20
65.6079700097781142
 30
0.0
 40
2.4999889342754882
 50
180.0005103376863929
 51
270.0002536111063023
  0
ARC
  5
1D187
  8
本体1
 10
109.2324852232175942
 20
65.6079535609650293
 30
0.0
 40
2.499994181234821
 50
89.999866643255757
 51
180.0001333567441861
  0
LINE
  5
1D188
  8
本体1
 10
109.2324910419909969
 20
72.2747810755271303
 30
0.0
 11
109.2324910419909969
 21
58.9411144088602512
 31
0.0
  0
LINE
  5
1D18C
  8
本体2
  6
DASHED2
 10
203.1630665889391025
 20
139.8304605348089922
 30
0.0
 11
229.7257704358329136
 21
139.8304605348089922
 31
0.0
  0
ARC
  5
1D18D
  8
本体2
  6
DASHED2
 10
229.7257704358329136
 20
140.2284036636021085
 30
0.0
 40
0.3979431287924138
 50
270.0
 51
339.5929860811290268
  0
CIRCLE
  5
1D18E
  8
本体2
  6
DASHED2
 10
206.7445547480710104
 20
143.2129771295450098
 30
0.0
 40
0.4476860198914655
  0
CIRCLE
  5
1D18F
  8
本体2
  6
DASHED2
 10
206.7445547480710104
 20
143.2129771295450098
 30
0.0
 40
0.945114930881983
  0
CIRCLE
  5
1D190
  8
本体2
  6
DASHED2
 10
226.144282276700693
 20
143.2129771295450098
 30
0.0
 40
0.4476860198914655
  0
CIRCLE
  5
1D191
  8
本体2
  6
DASHED2
 10
226.144282276700693
 20
143.2129771295450098
 30
0.0
 40
0.945114930881983
  0
LINE
  5
1D192
  8
本体2
  6
DASHED2
 10
200.5266933606889097
 20
148.7841809326390035
 30
0.0
 11
232.362143664081799
 21
148.7841809326390035
 31
0.0
  0
LINE
  5
1D193
  8
本体2
  6
DASHED2
 10
203.7102383910290939
 20
145.2026927735070103
 30
0.0
 11
229.1785986337430074
 21
145.2026927735070103
 31
0.0
  0
LINE
  5
1D194
  8
本体2
  6
DASHED2
 10
199.5318355387088047
 20
147.789323110656909
 30
0.0
 11
199.5318355387088047
 21
140.4273752279981125
 31
0.0
  0
CIRCLE
  5
1D195
  8
本体2
  6
DASHED2
 10
201.3225796182736076
 20
142.3673479808610978
 30
0.0
 40
0.4476860198914655
  0
LINE
  5
1D196
  8
本体2
  6
DASHED2
 10
200.1287502318982092
 20
139.8304605348089922
 30
0.0
 11
201.5215511826708052
 21
139.8304605348089922
 31
0.0
  0
ARC
  5
1D197
  8
本体2
  6
DASHED2
 10
200.1287502318982092
 20
140.4273752279981125
 30
0.0
 40
0.5969146931886207
 50
180.0
 51
270.0
  0
ARC
  5
1D198
  8
本体2
  6
DASHED2
 10
200.5266933606889097
 20
147.789323110656909
 30
0.0
 40
0.9948578219810343
 50
90.0
 51
180.0
  0
CIRCLE
  5
1D199
  8
本体2
  6
DASHED2
 10
216.4444185123869886
 20
146.9934368530730922
 30
0.0
 40
0.4476860198914655
  0
LINE
  5
1D19A
  8
本体2
  6
DASHED2
 10
233.3570014860632966
 20
147.789323110656909
 30
0.0
 11
233.3570014860632966
 21
140.4273752279981125
 31
0.0
  0
ARC
  5
1D19B
  8
本体2
  6
DASHED2
 10
229.1785986337430074
 20
144.60577808031789
 30
0.0
 40
0.5969146931886207
 50
0.0
 51
90.0
  0
ARC
  5
1D19C
  8
本体2
  6
DASHED2
 10
231.3672858421018077
 20
141.4222330499788995
 30
0.0
 40
1.5917725151696549
 50
180.0
 51
270.0
  0
LINE
  5
1D19D
  8
本体2
  6
DASHED2
 10
229.7755133269315024
 20
144.60577808031789
 30
0.0
 11
229.7755133269315024
 21
141.4222330499788995
 31
0.0
  0
CIRCLE
  5
1D19E
  8
本体2
  6
DASHED2
 10
231.5662574064971011
 20
142.3673479808610978
 30
0.0
 40
0.4476860198914655
  0
ARC
  5
1D19F
  8
本体2
  6
DASHED2
 10
232.7600867928738921
 20
140.4273752279981125
 30
0.0
 40
0.5969146931886207
 50
270.0
 51
0.0
  0
LINE
  5
1D1A0
  8
本体2
  6
DASHED2
 10
231.3672858421018077
 20
139.8304605348089922
 30
0.0
 11
232.7600867928738921
 21
139.8304605348089922
 31
0.0
  0
ARC
  5
1D1A1
  8
本体2
  6
DASHED2
 10
232.362143664081799
 20
147.789323110656909
 30
0.0
 40
0.9948578219810343
 50
0.0
 51
90.0
  0
LINE
  5
1D1A2
  8
本体2
  6
DASHED2
 10
230.1734564557235956
 20
142.7155482185540905
 30
0.0
 11
230.1734564557235956
 21
142.0191477431679914
 31
0.0
  0
LINE
  5
1D1A3
  8
本体2
  6
DASHED2
 10
229.7755133269315024
 20
142.0191477431679914
 30
0.0
 11
230.1734564557235956
 21
142.0191477431679914
 31
0.0
  0
LINE
  5
1D1A4
  8
本体2
  6
DASHED2
 10
229.7755133269315024
 20
142.7155482185540905
 30
0.0
 11
230.1734564557235956
 21
142.7155482185540905
 31
0.0
  0
ARC
  5
1D1A5
  8
本体2
  6
DASHED2
 10
203.7102383910290939
 20
144.60577808031789
 30
0.0
 40
0.5969146931886207
 50
90.0
 51
180.0
  0
ARC
  5
1D1A6
  8
本体2
  6
DASHED2
 10
201.5215511826708052
 20
141.4222330499788995
 30
0.0
 40
1.5917725151696549
 50
270.0
 51
0.0
  0
LINE
  5
1D1A7
  8
本体2
  6
DASHED2
 10
203.1133236978411105
 20
144.60577808031789
 30
0.0
 11
203.1133236978411105
 21
141.4222330499788995
 31
0.0
  0
LINE
  5
1D1A8
  8
本体2
  6
DASHED2
 10
202.7153805690475963
 20
142.7155482185540905
 30
0.0
 11
202.7153805690475963
 21
142.0191477431679914
 31
0.0
  0
LINE
  5
1D1A9
  8
本体2
  6
DASHED2
 10
203.1133236978411105
 20
142.0191477431679914
 30
0.0
 11
202.7153805690475963
 21
142.0191477431679914
 31
0.0
  0
LINE
  5
1D1AA
  8
本体2
  6
DASHED2
 10
203.1133236978411105
 20
142.7155482185540905
 30
0.0
 11
202.7153805690475963
 21
142.7155482185540905
 31
0.0
  0
LINE
  5
1D1AB
  8
本体2
  6
DASHED2
 10
230.0987383799509871
 20
140.089646154206207
 30
0.0
 11
230.0987383799509871
 21
140.4607097396429936
 31
0.0
  0
ARC
  5
1D1AC
  8
本体2
  6
DASHED2
 10
203.1630665889391025
 20
140.2284036636021085
 30
0.0
 40
0.3979431287924138
 50
200.4070139188710016
 51
270.0
  0
LINE
  5
1D1AD
  8
本体2
  6
DASHED2
 10
202.7900986448215974
 20
140.089646154206207
 30
0.0
 11
202.7900986448215974
 21
140.4607097396429936
 31
0.0
  0
TEXT
  5
1D1AE
  8
注釈
  6
CONTINUOUS
 62
     2
 10
190.5418098801968085
 20
128.2902655637608973
 30
0.0
 40
3.0
  1
※スライドロック機構　脱着式
  7
角ゴ
 72
     1
 11
215.6418098801968029
 21
128.2902655637608973
 31
0.0
  0
TEXT
  5
1D1AF
  8
注釈
  6
CONTINUOUS
 62
     2
 10
201.7443010152377099
 20
123.4547405700240006
 30
0.0
 40
3.0
  1
（ABS樹脂成形）
  7
角ゴ
 72
     1
 11
215.7443010152377099
 21
123.4547405700240006
 31
0.0
  0
LINE
  5
1D1B8
  8
本体1
 62
     7
 10
42.5658243753249508
 20
135.4651440502613013
 30
0.0
 11
109.2324910419919064
 21
135.4651440502613013
 31
0.0
  0
LINE
  5
1D1B9
  8
本体1
 62
     7
 10
109.2324910419919064
 20
135.4651440502613013
 30
0.0
 11
109.2324910419919064
 21
133.1318107169271059
 31
0.0
  0
LINE
  5
1D1BB
  8
本体1
 62
     7
 10
42.5658243753249508
 20
133.1318107169271059
 30
0.0
 11
109.2324910419919064
 21
133.1318107169271059
 31
0.0
  0
LINE
  5
1D1BC
  8
本体1
 62
     7
 10
42.5658243753249508
 20
134.4651440502613013
 30
0.0
 11
109.2324910419919064
 21
134.4651440502613013
 31
0.0
  0
LINE
  5
1D1BD
  8
本体1
 62
     7
 10
42.5658243753249508
 20
133.7984773835941041
 30
0.0
 11
109.2324910419919064
 21
133.7984773835941041
 31
0.0
  0
LINE
  5
1D1BE
  8
0
 10
45.0658243756687398
 20
133.7984773835941041
 30
0.0
 11
45.0658243756687398
 21
134.4651440502613013
 31
0.0
  0
LINE
  5
1D1BF
  8
0
 10
106.7324910416477053
 20
133.7984773835941041
 30
0.0
 11
106.7324910416477053
 21
134.4651440502613013
 31
0.0
  0
LINE
  5
1D1C0
  8
0
 10
108.8680237464340053
 20
134.131810716927987
 30
0.0
 11
42.974747891424947
 21
134.131810716927987
 31
0.0
  0
LINE
  5
1D1C1
  8
0
 10
42.5658243753249508
 20
133.7984773835941041
 30
0.0
 11
42.5658243753249508
 21
133.131810716927987
 31
0.0
  0
LINE
  5
1D1C2
  8
0
 10
42.5658243753249508
 20
135.4651440502613013
 30
0.0
 11
42.5658243753249508
 21
133.7984773835941041
 31
0.0
  0
LINE
  5
1D1C9
  8
0
 10
193.429634341384201
 20
56.2618641131372215
 30
0.0
 11
191.7629676747176859
 21
56.2618641131372215
 31
0.0
  0
LINE
  5
1D1CA
  8
0
 10
191.7629676747176859
 20
56.2618641131372215
 30
0.0
 11
191.0963010080515971
 21
56.2618641131372215
 31
0.0
  0
LINE
  5
1D626
  8
枠ライン
 10
0.0
 20
191.8168196486840884
 30
0.0
 11
280.2241412306689767
 21
191.8168196486840884
 31
0.0
  0
LINE
  5
1D627
  8
枠ライン
 10
280.2241412306689767
 20
191.8168196486840884
 30
0.0
 11
280.2241412306689767
 21
-0.0004000000044471
 31
0.0
  0
LINE
  5
1D628
  8
枠ライン
 10
280.2241412306689767
 20
-0.0004000000044471
 30
0.0
 11
0.0
 21
-0.0004000000044471
 31
0.0
  0
LINE
  5
1D629
  8
枠ライン
 10
0.0
 20
-0.0004000000044471
 30
0.0
 11
0.0
 21
191.8168196486840884
 31
0.0
  0
LINE
  5
1D62A
  8
枠ライン
 10
-7.3040250337280384
 20
200.6716298377332919
 30
0.0
 11
289.6959749662718764
 21
200.6716298377332919
 31
0.0
  0
LINE
  5
1D62B
  8
枠ライン
 10
289.6959749662718764
 20
200.6716298377332919
 30
0.0
 11
289.6959749662718764
 21
-9.3283701622667632
 31
0.0
  0
LINE
  5
1D62C
  8
枠ライン
 10
289.6959749662718764
 20
-9.3283701622667632
 30
0.0
 11
-7.3040250337280384
 21
-9.3283701622667632
 31
0.0
  0
LINE
  5
1D62D
  8
枠ライン
 10
-7.3040250337280384
 20
-9.3283701622667632
 30
0.0
 11
-7.3040250337280384
 21
200.6716298377332919
 31
0.0
  0
LINE
  5
1D62E
  8
0
 62
     2
 10
193.429634341384201
 20
54.2618641131372215
 30
0.0
 11
193.429634341384201
 21
49.2618641131372215
 31
0.0
  0
LINE
  5
1D62F
  8
0
 62
     2
 10
194.4296343413847126
 20
54.2618641131372215
 30
0.0
 11
194.4296343413847126
 21
49.2618641131372215
 31
0.0
  0
LINE
  5
1D630
  8
0
 62
     2
 10
193.0296343413841953
 20
49.2618641131372215
 30
0.0
 11
192.6296343413841896
 21
49.2618641131372215
 31
0.0
  0
LINE
  5
1D631
  8
0
 62
     2
 10
194.8296343413846898
 20
49.2618641131372215
 30
0.0
 11
198.0796343413846898
 21
49.2618641131372215
 31
0.0
  0
LINE
  5
1D635
  8
0
 62
     2
 10
189.4296343413847978
 20
89.6077477421930837
 30
0.0
 11
184.4296343414079047
 21
89.6077477421930837
 31
0.0
  0
LINE
  5
1D636
  8
0
 62
     2
 10
189.4296343413847978
 20
56.2618641131372428
 30
0.0
 11
184.42963434140799
 21
56.2618641131372428
 31
0.0
  0
LINE
  5
1D637
  8
0
 62
     2
 10
184.4296343414079047
 20
89.207747742193078
 30
0.0
 11
184.42963434140799
 21
56.6618641131372485
 31
0.0
  0
LINE
  5
1D63B
  8
ビス類
  6
CONTINUOUS
 62
     3
 10
198.6234820713644922
 20
72.0012348771494999
 30
0.0
 11
201.6509512240131983
 21
72.001238377149491
 31
0.0
  0
LINE
  5
1D63C
  8
ビス類
  6
CONTINUOUS
 62
     3
 10
198.6234820713644922
 20
70.5012623771494731
 30
0.0
 11
201.6509512240131983
 21
70.5012623771494731
 31
0.0
  0
LINE
  5
1D63D
  8
ビス類
  6
CONTINUOUS
 62
     3
 10
202.2615222442939
 20
71.2143986256966741
 30
0.0
 11
200.6602563991013142
 21
71.2143986256966741
 31
0.0
  0
LINE
  5
1D63E
  8
ビス類
  6
CONTINUOUS
 62
     3
 10
202.2615222442939
 20
71.2881021286022474
 30
0.0
 11
200.648702433966406
 21
71.2881021286022474
 31
0.0
  0
LINE
  5
1D63F
  8
ビス類
  6
CONTINUOUS
 62
     3
 10
199.5997663958019928
 20
70.9902463240134125
 30
0.0
 11
198.7079762411337072
 21
71.5766652932509828
 31
0.0
  0
LINE
  5
1D640
  8
ビス類
  6
CONTINUOUS
 62
     3
 10
199.5873942539028008
 20
70.909748765415145
 30
0.0
 11
198.699857442794297
 21
71.4933708419834488
 31
0.0
  0
LINE
  5
1D641
  8
ビス類
  6
CONTINUOUS
 62
     3
 10
200.648702433966406
 20
71.2881021286022474
 30
0.0
 11
199.5997663958019928
 21
70.9902463240134125
 31
0.0
  0
LINE
  5
1D642
  8
ビス類
  6
CONTINUOUS
 62
     3
 10
200.6602563991013142
 20
71.2143986256966741
 30
0.0
 11
199.5873942539028008
 21
70.909748765415145
 31
0.0
  0
LINE
  5
1D643
  8
ビス類
  6
CONTINUOUS
 62
     3
 10
202.2615222442939
 20
71.1038433713383142
 30
0.0
 11
202.2615222442939
 21
71.3986573829606073
 31
0.0
  0
LINE
  5
1D644
  8
ビス類
  6
CONTINUOUS
 62
     3
 10
202.2615222442939
 20
71.3986573829606073
 30
0.0
 11
201.6509512240131983
 21
72.001238377149491
 31
0.0
  0
LINE
  5
1D645
  8
ビス類
  6
CONTINUOUS
 62
     3
 10
202.2615222442939
 20
71.1038433713383142
 30
0.0
 11
201.6509512240131983
 21
70.5012623771494731
 31
0.0
  0
LINE
  5
1D646
  8
ビス類
  6
CONTINUOUS
 62
     3
 10
195.8066739628357027
 20
72.6193757687063339
 30
0.0
 11
195.8066739628357027
 21
72.4960214459018033
 31
0.0
  0
LINE
  5
1D647
  8
ビス類
  6
CONTINUOUS
 62
     3
 10
196.8066739628357027
 20
72.6193757687063339
 30
0.0
 11
196.8066739628357027
 21
72.4960214459018033
 31
0.0
  0
LINE
  5
1D648
  8
ビス類
  6
CONTINUOUS
 62
     3
 10
198.0559608944242882
 20
71.8540906388500957
 30
0.0
 11
195.8066739628357027
 21
72.6193757687063339
 31
0.0
  0
LINE
  5
1D649
  8
ビス類
  6
CONTINUOUS
 62
     3
 10
194.429634341384201
 20
71.9839153306922412
 30
0.0
 11
193.429650688872897
 21
72.9944097408827588
 31
0.0
  0
LINE
  5
1D64A
  8
ビス類
  6
CONTINUOUS
 62
     3
 10
197.088903064296403
 20
71.2775430216872223
 30
0.0
 11
195.9457160568163943
 21
71.2775430216872223
 31
0.0
  0
LINE
  5
1D64B
  8
ビス類
  6
CONTINUOUS
 62
     3
 10
197.1082219612754045
 20
71.3512465245927956
 30
0.0
 11
195.9457160568163943
 21
71.3512465245927956
 31
0.0
  0
LINE
  5
1D64C
  8
ビス類
  6
CONTINUOUS
 62
     3
 10
197.6934041748247068
 20
70.6484066154488914
 30
0.0
 11
196.1400072961689887
 21
70.6484066154489483
 31
0.0
  0
LINE
  5
1D64D
  8
ビス類
  6
CONTINUOUS
 62
     3
 10
197.6934041748245932
 20
70.6484066154488914
 30
0.0
 11
195.8066739628357027
 21
70.0064758083971697
 31
0.0
  0
LINE
  5
1D64E
  8
ビス類
  6
CONTINUOUS
 62
     3
 10
198.0559608944242882
 20
70.6484066154488914
 30
0.0
 11
195.8066739628357027
 21
69.8831214855926532
 31
0.0
  0
LINE
  5
1D64F
  8
ビス類
  6
CONTINUOUS
 62
     3
 10
197.6934041748247068
 20
71.8540906388500957
 30
0.0
 11
196.1400072961689887
 21
71.8540906388500247
 31
0.0
  0
LINE
  5
1D650
  8
ビス類
  6
CONTINUOUS
 62
     3
 10
197.6934041748245932
 20
71.8540906388500957
 30
0.0
 11
195.8066739628357027
 21
72.4960214459018033
 31
0.0
  0
LINE
  5
1D651
  8
ビス類
  6
CONTINUOUS
 62
     3
 10
196.1400072961689887
 20
70.5012623771494731
 30
0.0
 11
194.429634341384201
 21
70.5012623771494731
 31
0.0
  0
LINE
  5
1D652
  8
ビス類
  6
CONTINUOUS
 62
     3
 10
195.5190295373745926
 20
70.5012623771494731
 30
0.0
 11
194.429634341384201
 21
70.250722788097562
 31
0.0
  0
LINE
  5
1D653
  8
ビス類
  6
CONTINUOUS
 62
     3
 10
196.1400072961689887
 20
72.0012348771494999
 30
0.0
 11
194.429634341384201
 21
72.0012348771494999
 31
0.0
  0
LINE
  5
1D654
  8
ビス類
  6
CONTINUOUS
 62
     3
 10
195.5190295373745926
 20
72.0012348771494999
 30
0.0
 11
194.429634341384201
 21
72.2517744662014252
 31
0.0
  0
LINE
  5
1D655
  8
ビス類
  6
CONTINUOUS
 62
     3
 10
195.9457160568163943
 20
71.2775430216872223
 30
0.0
 11
195.9457160568163943
 21
71.3512465245927956
 31
0.0
  0
LINE
  5
1D656
  8
ビス類
  6
CONTINUOUS
 62
     3
 10
196.1400072961689887
 20
71.8540906388500247
 30
0.0
 11
196.1400072961689887
 21
72.0012348771494999
 31
0.0
  0
LINE
  5
1D657
  8
ビス類
  6
CONTINUOUS
 62
     3
 10
195.8066739628357027
 20
69.8831214855926532
 30
0.0
 11
195.8066739628357027
 21
70.0064758083971697
 31
0.0
  0
LINE
  5
1D658
  8
ビス類
  6
CONTINUOUS
 62
     3
 10
196.8066739628357027
 20
69.8831214855926532
 30
0.0
 11
196.8066739628357027
 21
70.0064758083971697
 31
0.0
  0
LINE
  5
1D659
  8
ビス類
  6
CONTINUOUS
 62
     3
 10
196.1400072961689887
 20
70.6484066154489483
 30
0.0
 11
196.1400072961689887
 21
70.5012623771494731
 31
0.0
  0
LINE
  5
1D65A
  8
ビス類
  6
CONTINUOUS
 62
     3
 10
197.5554023529589074
 20
71.0264733800136696
 30
0.0
 11
197.088903064296403
 21
71.2775430216872223
 31
0.0
  0
LINE
  5
1D65B
  8
ビス類
  6
CONTINUOUS
 62
     3
 10
197.5597553550213092
 20
71.1082315187254608
 30
0.0
 11
197.1082219612754045
 21
71.3512465245927956
 31
0.0
  0
LINE
  5
1D65C
  8
本体1
  6
CONTINUOUS
 62
     3
 10
193.4296179938957039
 20
69.541868781115511
 30
0.0
 11
193.429650688872897
 21
72.9944097408827588
 31
0.0
  0
LINE
  5
1D65D
  8
ビス類
  6
CONTINUOUS
 62
     3
 10
194.429634341384201
 20
70.5316309005580138
 30
0.0
 11
193.4296179938957039
 21
69.541868781115511
 31
0.0
  0
LINE
  5
1D65E
  8
ビス類
  6
CONTINUOUS
 62
     3
 10
198.6234820713644922
 20
72.0012348771494999
 30
0.0
 11
196.8066739628357027
 21
72.6193757687063339
 31
0.0
  0
LINE
  5
1D65F
  8
ビス類
  6
CONTINUOUS
 62
     3
 10
198.6234820713644922
 20
70.5012623771494731
 30
0.0
 11
196.8066739628357027
 21
69.8831214855926532
 31
0.0
  0
LINE
  5
1D660
  8
ビス類
  6
CONTINUOUS
 62
     3
 10
198.6934041748245932
 20
70.6484066154488914
 30
0.0
 11
196.8066739628357027
 21
70.0064758083971697
 31
0.0
  0
LINE
  5
1D661
  8
ビス類
  6
CONTINUOUS
 62
     3
 10
198.6934041748245932
 20
71.8540906388500957
 30
0.0
 11
196.8066739628357027
 21
72.4960214459018033
 31
0.0
  0
LINE
  5
1D662
  8
ビス類
  6
CONTINUOUS
 62
     3
 10
198.699857442794297
 20
71.4933708419834488
 30
0.0
 11
197.5554023529589074
 21
71.0264733800136696
 31
0.0
  0
LINE
  5
1D663
  8
ビス類
  6
CONTINUOUS
 62
     3
 10
198.699857442794297
 20
71.4933708419834488
 30
0.0
 11
197.5554023529589074
 21
71.0264733800136696
 31
0.0
  0
LINE
  5
1D664
  8
ビス類
  6
CONTINUOUS
 62
     3
 10
198.7079762411337072
 20
71.5766652932509828
 30
0.0
 11
197.5597553550213092
 21
71.1082315187254608
 31
0.0
  0
LINE
  5
1D665
  8
ビス類
  6
CONTINUOUS
 62
     3
 10
198.6934041748245932
 20
71.8540906388500957
 30
0.0
 11
198.0559608944242882
 21
71.8540906388500957
 31
0.0
  0
LINE
  5
1D666
  8
ビス類
  6
CONTINUOUS
 62
     3
 10
198.6934041748245932
 20
70.6484066154488914
 30
0.0
 11
198.0559608944242882
 21
70.6484066154488914
 31
0.0
  0
LINE
  5
1D667
  8
0
 62
     2
 10
40.5658577086568499
 20
58.9411144088602725
 30
0.0
 11
35.5658577086577381
 21
58.9411144088602725
 31
0.0
  0
LINE
  5
1D668
  8
0
 62
     2
 10
40.5658577086568499
 20
56.2744144088602809
 30
0.0
 11
35.5658577086577381
 21
56.2744144088602809
 31
0.0
  0
LINE
  5
1D669
  8
0
 62
     2
 10
35.5658577086577381
 20
58.5411144088602668
 30
0.0
 11
35.5658577086577381
 21
56.6744144088602795
 31
0.0
  0
LINE
  5
1D66D
  8
0
 62
     2
 10
42.5658577086568286
 20
54.2744144088602525
 30
0.0
 11
42.5658577086568286
 21
49.2744144088602525
 31
0.0
  0
LINE
  5
1D66E
  8
0
 62
     2
 10
109.2325243753238055
 20
54.2744144088602525
 30
0.0
 11
109.2325243753238055
 21
49.2744144088602525
 31
0.0
  0
LINE
  5
1D66F
  8
0
 62
     2
 10
42.9658577086568272
 20
49.2744144088602525
 30
0.0
 11
108.8325243753237999
 21
49.2744144088602525
 31
0.0
  0
LINE
  5
1D673
  8
0
 62
     2
 10
40.5658243753240484
 20
72.2747810755271587
 30
0.0
 11
35.5658910420089711
 21
72.2747810755271587
 31
0.0
  0
LINE
  5
1D674
  8
0
 62
     2
 10
40.5658910419896372
 20
58.9411144088602725
 30
0.0
 11
35.5658910420089711
 21
58.9411144088602725
 31
0.0
  0
LINE
  5
1D675
  8
0
 62
     2
 10
35.5658910420089711
 20
71.874781075527153
 30
0.0
 11
35.5658910420089711
 21
59.3411144088602711
 31
0.0
  0
LINE
  5
1D679
  8
0
 62
     2
 10
39.0658243753240626
 20
89.6077477421930837
 30
0.0
 11
30.0658243753415597
 21
89.6077477421930837
 31
0.0
  0
LINE
  5
1D67A
  8
0
 62
     2
 10
39.0658577086577594
 20
56.2744144088602809
 30
0.0
 11
30.0658243753415597
 21
56.2744144088602809
 31
0.0
  0
LINE
  5
1D67B
  8
0
 62
     2
 10
30.0658243753415597
 20
89.2077477421930638
 30
0.0
 11
30.0658243753415597
 21
56.6744144088602795
 31
0.0
  0
LINE
  5
1D67F
  8
0
 62
     2
 10
40.5658577086568499
 20
89.6077477421930837
 30
0.0
 11
35.5658910420089711
 21
89.6077477421930837
 31
0.0
  0
LINE
  5
1D680
  8
0
 62
     2
 10
40.5658910419896372
 20
72.2747810755271587
 30
0.0
 11
35.5658910420089711
 21
72.2747810755271587
 31
0.0
  0
LINE
  5
1D681
  8
0
 62
     2
 10
35.5658910420089711
 20
89.207747742193078
 30
0.0
 11
35.5658910420089711
 21
72.6747810755271644
 31
0.0
  0
LINE
  5
1D685
  8
0
 62
     2
 10
203.2615488470692071
 20
71.2681392609983106
 30
0.0
 11
206.1617974904210939
 21
71.2681392609983106
 31
0.0
  0
LINE
  5
1D686
  8
0
 62
     2
 10
195.4296343413843999
 20
56.2618641131372428
 30
0.0
 11
206.1617974904212076
 21
56.2618641131372428
 31
0.0
  0
LINE
  5
1D687
  8
0
 62
     2
 10
206.1617974904210939
 20
70.868139260998305
 30
0.0
 11
206.1617974904212076
 21
56.6618641131372485
 31
0.0
  0
LINE
  5
1D68B
  8
0
 62
     2
 10
195.4296298031827064
 20
89.6077477421930837
 30
0.0
 11
206.1617974904212076
 21
89.6077477421930837
 31
0.0
  0
LINE
  5
1D68C
  8
0
 62
     2
 10
203.261548847067786
 20
71.2681392609983106
 30
0.0
 11
206.1617974904212076
 21
71.2681392609983106
 31
0.0
  0
LINE
  5
1D68D
  8
0
 62
     2
 10
206.1617974904212076
 20
89.207747742193078
 30
0.0
 11
206.1617974904212076
 21
71.6681392609983163
 31
0.0
  0
LINE
  5
1D691
  8
0
 10
196.4444185123865054
 20
134.2078349515261948
 30
0.0
 11
236.4444185123865054
 21
134.2078349515261948
 31
0.0
  0
LINE
  5
1D692
  8
0
 10
236.4444185123865054
 20
134.2078349515261948
 30
0.0
 11
236.4444185123865054
 21
154.2078349515261948
 31
0.0
  0
LINE
  5
1D693
  8
0
 10
236.4444185123865054
 20
154.2078349515261948
 30
0.0
 11
196.4444185123865054
 21
154.2078349515261948
 31
0.0
  0
LINE
  5
1D694
  8
0
 10
196.4444185123865054
 20
154.2078349515261948
 30
0.0
 11
196.4444185123865054
 21
134.2078349515261948
 31
0.0
  0
LINE
  5
1D695
  8
寸法
 62
     2
 10
109.2324910419919064
 20
138.4651374543998941
 30
0.0
 11
109.2324910419919064
 21
148.1759285941321878
 31
0.0
  0
LINE
  5
1D696
  8
寸法
 62
     2
 10
92.1491577086575262
 20
146.2970319531702046
 30
0.0
 11
92.1491577086575262
 21
148.1759285941321878
 31
0.0
  0
LINE
  5
1D697
  8
寸法
 62
     2
 10
108.8324910419919007
 20
148.1759285941321878
 30
0.0
 11
92.5491577086575319
 21
148.1759285941321878
 31
0.0
  0
LINE
  5
1D69B
  8
寸法
 62
     2
 10
42.5658243753249508
 20
137.4651440502613013
 30
0.0
 11
42.5658243753249508
 21
148.1759285941321878
 31
0.0
  0
LINE
  5
1D69C
  8
寸法
 62
     2
 10
59.6491577086575191
 20
146.2970319531702046
 30
0.0
 11
59.6491577086575191
 21
148.1759285941321878
 31
0.0
  0
LINE
  5
1D69D
  8
寸法
 62
     2
 10
42.9658243753249494
 20
148.1759285941321878
 30
0.0
 11
59.2491577086575205
 21
148.1759285941321878
 31
0.0
  0
LINE
  5
1D6A1
  8
寸法
 62
     2
 10
59.6491577086575191
 20
146.2970319531702046
 30
0.0
 11
59.6491577086575191
 21
148.1759285941321878
 31
0.0
  0
LINE
  5
1D6A2
  8
寸法
 62
     2
 10
92.1491577086575262
 20
146.2970319531702046
 30
0.0
 11
92.1491577086575262
 21
148.1759285941321878
 31
0.0
  0
LINE
  5
1D6A3
  8
寸法
 62
     2
 10
60.0491577086575319
 20
148.1759285941321878
 30
0.0
 11
91.7491577086575205
 21
148.1759285941321878
 31
0.0
  0
LINE
  5
1D6A7
  8
ビス類
  6
CONTINUOUS
 62
     3
 10
60.1354548996059819
 20
136.465136938194803
 30
0.0
 11
61.1252149606123965
 21
135.465122670468304
 31
0.0
  0
LINE
  5
1D6A8
  8
ビス類
  6
CONTINUOUS
 62
     3
 10
59.1270135292105081
 20
136.465136938194803
 30
0.0
 11
58.1165025997040132
 21
135.4651369381946893
 31
0.0
  0
LINE
  5
1D6A9
  8
本体1
  6
CONTINUOUS
 62
     3
 10
61.1252008391880324
 20
135.4651369381946893
 30
0.0
 11
58.1165169733459592
 21
135.4651511623277997
 31
0.0
  0
LINE
  5
1D6AA
  8
ビス類
  6
CONTINUOUS
 62
     3
 10
59.8964572027420417
 20
141.6352689926125947
 30
0.0
 11
59.3100382335044287
 21
140.7434788379443091
 31
0.0
  0
LINE
  5
1D6AB
  8
ビス類
  6
CONTINUOUS
 62
     3
 10
59.9769547613402594
 20
141.6228968507134027
 30
0.0
 11
59.3933326847719982
 21
140.7353600396048137
 31
0.0
  0
LINE
  5
1D6AC
  8
ビス類
  6
CONTINUOUS
 62
     3
 10
58.8854686496059188
 20
140.6589846681750942
 30
0.0
 11
58.8854651496059489
 21
143.6864538208236866
 31
0.0
  0
LINE
  5
1D6AD
  8
ビス類
  6
CONTINUOUS
 62
     3
 10
60.3854411496059384
 20
140.6589846681750942
 30
0.0
 11
60.3854411496059384
 21
143.6864538208236866
 31
0.0
  0
LINE
  5
1D6AE
  8
ビス類
  6
CONTINUOUS
 62
     3
 10
60.2382969113064775
 20
139.7289067716353088
 30
0.0
 11
60.2382969113064775
 21
138.1755098929795906
 31
0.0
  0
LINE
  5
1D6AF
  8
ビス類
  6
CONTINUOUS
 62
     3
 10
59.0326128879053087
 20
139.7289067716353088
 30
0.0
 11
59.0326128879053798
 21
138.1755098929795906
 31
0.0
  0
LINE
  5
1D6B0
  8
ビス類
  6
CONTINUOUS
 62
     3
 10
60.2382969113065627
 20
139.7289067716351951
 30
0.0
 11
60.8802277183582916
 21
137.8421765596463047
 31
0.0
  0
LINE
  5
1D6B1
  8
ビス類
  6
CONTINUOUS
 62
     3
 10
60.2382969113065627
 20
140.0914634912348902
 30
0.0
 11
61.003582041162808
 21
137.8421765596463047
 31
0.0
  0
LINE
  5
1D6B2
  8
ビス類
  6
CONTINUOUS
 62
     3
 10
59.6091605050681466
 20
139.124405661107005
 30
0.0
 11
59.6091605050681466
 21
137.9812186536269962
 31
0.0
  0
LINE
  5
1D6B3
  8
ビス類
  6
CONTINUOUS
 62
     3
 10
59.5354570021625804
 20
139.1437245580860065
 30
0.0
 11
59.5354570021625804
 21
137.9812186536269962
 31
0.0
  0
LINE
  5
1D6B4
  8
ビス類
  6
CONTINUOUS
 62
     3
 10
59.0326128879053087
 20
139.7289067716351951
 30
0.0
 11
58.3906820808535798
 21
137.8421765596463047
 31
0.0
  0
LINE
  5
1D6B5
  8
ビス類
  6
CONTINUOUS
 62
     3
 10
59.0326128879053087
 20
140.0914634912348902
 30
0.0
 11
58.2673277580490705
 21
137.8421765596463047
 31
0.0
  0
LINE
  5
1D6B6
  8
ビス類
  6
CONTINUOUS
 62
     3
 10
59.0326128879053798
 20
138.1755098929795906
 30
0.0
 11
58.8854686496059188
 21
138.1755098929795906
 31
0.0
  0
LINE
  5
1D6B7
  8
ビス類
  6
CONTINUOUS
 62
     3
 10
58.8854686496059188
 20
136.465136938194803
 30
0.0
 11
60.3854411496059384
 21
136.465136938194803
 31
0.0
  0
LINE
  5
1D6B8
  8
ビス類
  6
CONTINUOUS
 62
     3
 10
58.2673277580490705
 20
137.8421765596463047
 30
0.0
 11
58.3906820808535798
 21
137.8421765596463047
 31
0.0
  0
LINE
  5
1D6B9
  8
ビス類
  6
CONTINUOUS
 62
     3
 10
58.8854686496059188
 20
137.5545321341851093
 30
0.0
 11
58.6349290605539792
 21
136.465136938194803
 31
0.0
  0
LINE
  5
1D6BA
  8
ビス類
  6
CONTINUOUS
 62
     3
 10
58.8854686496059188
 20
138.1755098929795906
 30
0.0
 11
58.8854686496059188
 21
136.465136938194803
 31
0.0
  0
LINE
  5
1D6BB
  8
ビス類
  6
CONTINUOUS
 62
     3
 10
60.2382969113064775
 20
138.1755098929795906
 30
0.0
 11
60.3854411496059384
 21
138.1755098929795906
 31
0.0
  0
LINE
  5
1D6BC
  8
ビス類
  6
CONTINUOUS
 62
     3
 10
59.6091605050681466
 20
137.9812186536269962
 30
0.0
 11
59.5354570021625804
 21
137.9812186536269962
 31
0.0
  0
LINE
  5
1D6BD
  8
ビス類
  6
CONTINUOUS
 62
     3
 10
61.003582041162808
 20
137.8421765596463047
 30
0.0
 11
60.8802277183582916
 21
137.8421765596463047
 31
0.0
  0
LINE
  5
1D6BE
  8
ビス類
  6
CONTINUOUS
 62
     3
 10
60.3854411496059384
 20
137.5545321341851093
 30
0.0
 11
60.6359807386578922
 21
136.465136938194803
 31
0.0
  0
LINE
  5
1D6BF
  8
ビス類
  6
CONTINUOUS
 62
     3
 10
60.3854411496059384
 20
138.1755098929795906
 30
0.0
 11
60.3854411496059384
 21
136.465136938194803
 31
0.0
  0
LINE
  5
1D6C0
  8
ビス類
  6
CONTINUOUS
 62
     3
 10
59.0326128879053087
 20
140.7289067716351951
 30
0.0
 11
58.3906820808535798
 21
138.8421765596463047
 31
0.0
  0
LINE
  5
1D6C1
  8
ビス類
  6
CONTINUOUS
 62
     3
 10
58.2673277580490705
 20
138.8421765596463047
 30
0.0
 11
58.3906820808535798
 21
138.8421765596463047
 31
0.0
  0
LINE
  5
1D6C2
  8
ビス類
  6
CONTINUOUS
 62
     3
 10
58.8854686496059188
 20
140.6589846681750942
 30
0.0
 11
58.2673277580490705
 21
138.8421765596463047
 31
0.0
  0
LINE
  5
1D6C3
  8
ビス類
  6
CONTINUOUS
 62
     3
 10
59.8602301467417419
 20
139.5909049497695094
 30
0.0
 11
59.6091605050681466
 21
139.124405661107005
 31
0.0
  0
LINE
  5
1D6C4
  8
ビス類
  6
CONTINUOUS
 62
     3
 10
59.7784720080299721
 20
139.5952579518319112
 30
0.0
 11
59.5354570021625804
 21
139.1437245580860065
 31
0.0
  0
LINE
  5
1D6C5
  8
ビス類
  6
CONTINUOUS
 62
     3
 10
61.003582041162808
 20
138.8421765596463047
 30
0.0
 11
60.8802277183582916
 21
138.8421765596463047
 31
0.0
  0
LINE
  5
1D6C6
  8
ビス類
  6
CONTINUOUS
 62
     3
 10
60.2382969113065627
 20
140.7289067716351951
 30
0.0
 11
60.8802277183582916
 21
138.8421765596463047
 31
0.0
  0
LINE
  5
1D6C7
  8
ビス類
  6
CONTINUOUS
 62
     3
 10
59.3933326847719982
 20
140.7353600396048137
 30
0.0
 11
59.8602301467417419
 21
139.5909049497695094
 31
0.0
  0
LINE
  5
1D6C8
  8
ビス類
  6
CONTINUOUS
 62
     3
 10
59.3933326847719982
 20
140.7353600396048137
 30
0.0
 11
59.8602301467417419
 21
139.5909049497695094
 31
0.0
  0
LINE
  5
1D6C9
  8
ビス類
  6
CONTINUOUS
 62
     3
 10
59.3100382335044287
 20
140.7434788379443091
 30
0.0
 11
59.7784720080299721
 21
139.5952579518319112
 31
0.0
  0
LINE
  5
1D6CA
  8
ビス類
  6
CONTINUOUS
 62
     3
 10
60.2382969113065627
 20
140.7289067716351951
 30
0.0
 11
60.2382969113065627
 21
140.0914634912348902
 31
0.0
  0
LINE
  5
1D6CB
  8
ビス類
  6
CONTINUOUS
 62
     3
 10
59.0326128879053087
 20
140.7289067716351951
 30
0.0
 11
59.0326128879053087
 21
140.0914634912348902
 31
0.0
  0
LINE
  5
1D6CC
  8
ビス類
  6
CONTINUOUS
 62
     3
 10
60.3854411496059384
 20
140.6589846681750942
 30
0.0
 11
61.003582041162808
 21
138.8421765596463047
 31
0.0
  0
LINE
  5
1D6CD
  8
ビス類
  6
CONTINUOUS
 62
     3
 10
59.6723049010587019
 20
144.297024841104502
 30
0.0
 11
59.6723049010587019
 21
142.6957589959118877
 31
0.0
  0
LINE
  5
1D6CE
  8
ビス類
  6
CONTINUOUS
 62
     3
 10
59.5986013981531286
 20
144.297024841104502
 30
0.0
 11
59.5986013981531286
 21
142.684205030777008
 31
0.0
  0
LINE
  5
1D6CF
  8
ビス類
  6
CONTINUOUS
 62
     3
 10
59.5986013981531286
 20
142.684205030777008
 30
0.0
 11
59.8964572027420417
 21
141.6352689926125947
 31
0.0
  0
LINE
  5
1D6D0
  8
ビス類
  6
CONTINUOUS
 62
     3
 10
59.6723049010587019
 20
142.6957589959118877
 30
0.0
 11
59.9769547613402594
 21
141.6228968507134027
 31
0.0
  0
LINE
  5
1D6D1
  8
ビス類
  6
CONTINUOUS
 62
     3
 10
59.4880461437947687
 20
144.297024841104502
 30
0.0
 11
58.8854651496059489
 21
143.6864538208236866
 31
0.0
  0
LINE
  5
1D6D2
  8
ビス類
  6
CONTINUOUS
 62
     3
 10
59.7828601554170618
 20
144.297024841104502
 30
0.0
 11
60.3854411496059384
 21
143.6864538208236866
 31
0.0
  0
LINE
  5
1D6D3
  8
ビス類
  6
CONTINUOUS
 62
     3
 10
59.7828601554170618
 20
144.297024841104502
 30
0.0
 11
59.4880461437947687
 21
144.297024841104502
 31
0.0
  0
LINE
  5
1D6D4
  8
ビス類
  6
CONTINUOUS
 62
     3
 10
92.6354548996059748
 20
136.465136938194803
 30
0.0
 11
93.6252149606123965
 21
135.465122670468304
 31
0.0
  0
LINE
  5
1D6D5
  8
ビス類
  6
CONTINUOUS
 62
     3
 10
91.6270135292105152
 20
136.465136938194803
 30
0.0
 11
90.6165025997040203
 21
135.4651369381946893
 31
0.0
  0
LINE
  5
1D6D6
  8
本体1
  6
CONTINUOUS
 62
     3
 10
93.6252008391880253
 20
135.4651369381946893
 30
0.0
 11
90.6165169733459663
 21
135.4651511623277997
 31
0.0
  0
LINE
  5
1D6D7
  8
ビス類
  6
CONTINUOUS
 62
     3
 10
92.3964572027420417
 20
141.6352689926125947
 30
0.0
 11
91.8100382335044145
 21
140.7434788379443091
 31
0.0
  0
LINE
  5
1D6D8
  8
ビス類
  6
CONTINUOUS
 62
     3
 10
92.4769547613402665
 20
141.6228968507134027
 30
0.0
 11
91.8933326847720053
 21
140.7353600396048137
 31
0.0
  0
LINE
  5
1D6D9
  8
ビス類
  6
CONTINUOUS
 62
     3
 10
91.3854686496059259
 20
140.6589846681750942
 30
0.0
 11
91.3854651496059347
 21
143.6864538208236866
 31
0.0
  0
LINE
  5
1D6DA
  8
ビス類
  6
CONTINUOUS
 62
     3
 10
92.8854411496059527
 20
140.6589846681750942
 30
0.0
 11
92.8854411496059527
 21
143.6864538208236866
 31
0.0
  0
LINE
  5
1D6DB
  8
ビス類
  6
CONTINUOUS
 62
     3
 10
92.7382969113064775
 20
139.7289067716353088
 30
0.0
 11
92.7382969113064775
 21
138.1755098929795906
 31
0.0
  0
LINE
  5
1D6DC
  8
ビス類
  6
CONTINUOUS
 62
     3
 10
91.5326128879053158
 20
139.7289067716353088
 30
0.0
 11
91.5326128879053869
 21
138.1755098929795906
 31
0.0
  0
LINE
  5
1D6DD
  8
ビス類
  6
CONTINUOUS
 62
     3
 10
92.7382969113065485
 20
139.7289067716351951
 30
0.0
 11
93.3802277183582845
 21
137.8421765596463047
 31
0.0
  0
LINE
  5
1D6DE
  8
ビス類
  6
CONTINUOUS
 62
     3
 10
92.7382969113065485
 20
140.0914634912348902
 30
0.0
 11
93.5035820411628151
 21
137.8421765596463047
 31
0.0
  0
LINE
  5
1D6DF
  8
ビス類
  6
CONTINUOUS
 62
     3
 10
92.1091605050681466
 20
139.124405661107005
 30
0.0
 11
92.1091605050681466
 21
137.9812186536269962
 31
0.0
  0
LINE
  5
1D6E0
  8
ビス類
  6
CONTINUOUS
 62
     3
 10
92.0354570021625733
 20
139.1437245580860065
 30
0.0
 11
92.0354570021625733
 21
137.9812186536269962
 31
0.0
  0
LINE
  5
1D6E1
  8
ビス類
  6
CONTINUOUS
 62
     3
 10
91.5326128879053158
 20
139.7289067716351951
 30
0.0
 11
90.8906820808535656
 21
137.8421765596463047
 31
0.0
  0
LINE
  5
1D6E2
  8
ビス類
  6
CONTINUOUS
 62
     3
 10
91.5326128879053158
 20
140.0914634912348902
 30
0.0
 11
90.7673277580490634
 21
137.8421765596463047
 31
0.0
  0
LINE
  5
1D6E3
  8
ビス類
  6
CONTINUOUS
 62
     3
 10
91.5326128879053869
 20
138.1755098929795906
 30
0.0
 11
91.3854686496059259
 21
138.1755098929795906
 31
0.0
  0
LINE
  5
1D6E4
  8
ビス類
  6
CONTINUOUS
 62
     3
 10
91.3854686496059259
 20
136.465136938194803
 30
0.0
 11
92.8854411496059527
 21
136.465136938194803
 31
0.0
  0
LINE
  5
1D6E5
  8
ビス類
  6
CONTINUOUS
 62
     3
 10
90.7673277580490634
 20
137.8421765596463047
 30
0.0
 11
90.8906820808535656
 21
137.8421765596463047
 31
0.0
  0
LINE
  5
1D6E6
  8
ビス類
  6
CONTINUOUS
 62
     3
 10
91.3854686496059259
 20
137.5545321341851093
 30
0.0
 11
91.1349290605539863
 21
136.465136938194803
 31
0.0
  0
LINE
  5
1D6E7
  8
ビス類
  6
CONTINUOUS
 62
     3
 10
91.3854686496059259
 20
138.1755098929795906
 30
0.0
 11
91.3854686496059259
 21
136.465136938194803
 31
0.0
  0
LINE
  5
1D6E8
  8
ビス類
  6
CONTINUOUS
 62
     3
 10
92.7382969113064775
 20
138.1755098929795906
 30
0.0
 11
92.8854411496059527
 21
138.1755098929795906
 31
0.0
  0
LINE
  5
1D6E9
  8
ビス類
  6
CONTINUOUS
 62
     3
 10
92.1091605050681466
 20
137.9812186536269962
 30
0.0
 11
92.0354570021625733
 21
137.9812186536269962
 31
0.0
  0
LINE
  5
1D6EA
  8
ビス類
  6
CONTINUOUS
 62
     3
 10
93.5035820411628151
 20
137.8421765596463047
 30
0.0
 11
93.3802277183582845
 21
137.8421765596463047
 31
0.0
  0
LINE
  5
1D6EB
  8
ビス類
  6
CONTINUOUS
 62
     3
 10
92.8854411496059527
 20
137.5545321341851093
 30
0.0
 11
93.135980738657878
 21
136.465136938194803
 31
0.0
  0
LINE
  5
1D6EC
  8
ビス類
  6
CONTINUOUS
 62
     3
 10
92.8854411496059527
 20
138.1755098929795906
 30
0.0
 11
92.8854411496059527
 21
136.465136938194803
 31
0.0
  0
LINE
  5
1D6ED
  8
ビス類
  6
CONTINUOUS
 62
     3
 10
91.5326128879053158
 20
140.7289067716351951
 30
0.0
 11
90.8906820808535656
 21
138.8421765596463047
 31
0.0
  0
LINE
  5
1D6EE
  8
ビス類
  6
CONTINUOUS
 62
     3
 10
90.7673277580490634
 20
138.8421765596463047
 30
0.0
 11
90.8906820808535656
 21
138.8421765596463047
 31
0.0
  0
LINE
  5
1D6EF
  8
ビス類
  6
CONTINUOUS
 62
     3
 10
91.3854686496059259
 20
140.6589846681750942
 30
0.0
 11
90.7673277580490634
 21
138.8421765596463047
 31
0.0
  0
LINE
  5
1D6F0
  8
ビス類
  6
CONTINUOUS
 62
     3
 10
92.3602301467417419
 20
139.5909049497695094
 30
0.0
 11
92.1091605050681466
 21
139.124405661107005
 31
0.0
  0
LINE
  5
1D6F1
  8
ビス類
  6
CONTINUOUS
 62
     3
 10
92.278472008029965
 20
139.5952579518319112
 30
0.0
 11
92.0354570021625733
 21
139.1437245580860065
 31
0.0
  0
LINE
  5
1D6F2
  8
ビス類
  6
CONTINUOUS
 62
     3
 10
93.5035820411628151
 20
138.8421765596463047
 30
0.0
 11
93.3802277183582845
 21
138.8421765596463047
 31
0.0
  0
LINE
  5
1D6F3
  8
ビス類
  6
CONTINUOUS
 62
     3
 10
92.7382969113065485
 20
140.7289067716351951
 30
0.0
 11
93.3802277183582845
 21
138.8421765596463047
 31
0.0
  0
LINE
  5
1D6F4
  8
ビス類
  6
CONTINUOUS
 62
     3
 10
91.8933326847720053
 20
140.7353600396048137
 30
0.0
 11
92.3602301467417419
 21
139.5909049497695094
 31
0.0
  0
LINE
  5
1D6F5
  8
ビス類
  6
CONTINUOUS
 62
     3
 10
91.8933326847720053
 20
140.7353600396048137
 30
0.0
 11
92.3602301467417419
 21
139.5909049497695094
 31
0.0
  0
LINE
  5
1D6F6
  8
ビス類
  6
CONTINUOUS
 62
     3
 10
91.8100382335044145
 20
140.7434788379443091
 30
0.0
 11
92.278472008029965
 21
139.5952579518319112
 31
0.0
  0
LINE
  5
1D6F7
  8
ビス類
  6
CONTINUOUS
 62
     3
 10
92.7382969113065485
 20
140.7289067716351951
 30
0.0
 11
92.7382969113065485
 21
140.0914634912348902
 31
0.0
  0
LINE
  5
1D6F8
  8
ビス類
  6
CONTINUOUS
 62
     3
 10
91.5326128879053158
 20
140.7289067716351951
 30
0.0
 11
91.5326128879053158
 21
140.0914634912348902
 31
0.0
  0
LINE
  5
1D6F9
  8
ビス類
  6
CONTINUOUS
 62
     3
 10
92.8854411496059527
 20
140.6589846681750942
 30
0.0
 11
93.5035820411628151
 21
138.8421765596463047
 31
0.0
  0
LINE
  5
1D6FA
  8
ビス類
  6
CONTINUOUS
 62
     3
 10
92.1723049010586948
 20
144.297024841104502
 30
0.0
 11
92.1723049010586948
 21
142.6957589959118877
 31
0.0
  0
LINE
  5
1D6FB
  8
ビス類
  6
CONTINUOUS
 62
     3
 10
92.0986013981531215
 20
144.297024841104502
 30
0.0
 11
92.0986013981531215
 21
142.684205030777008
 31
0.0
  0
LINE
  5
1D6FC
  8
ビス類
  6
CONTINUOUS
 62
     3
 10
92.0986013981531215
 20
142.684205030777008
 30
0.0
 11
92.3964572027420417
 21
141.6352689926125947
 31
0.0
  0
LINE
  5
1D6FD
  8
ビス類
  6
CONTINUOUS
 62
     3
 10
92.1723049010586948
 20
142.6957589959118877
 30
0.0
 11
92.4769547613402665
 21
141.6228968507134027
 31
0.0
  0
LINE
  5
1D6FE
  8
ビス類
  6
CONTINUOUS
 62
     3
 10
91.9880461437947616
 20
144.297024841104502
 30
0.0
 11
91.3854651496059347
 21
143.6864538208236866
 31
0.0
  0
LINE
  5
1D6FF
  8
ビス類
  6
CONTINUOUS
 62
     3
 10
92.2828601554170547
 20
144.297024841104502
 30
0.0
 11
92.8854411496059527
 21
143.6864538208236866
 31
0.0
  0
LINE
  5
1D700
  8
ビス類
  6
CONTINUOUS
 62
     3
 10
92.2828601554170547
 20
144.297024841104502
 30
0.0
 11
91.9880461437947616
 21
144.297024841104502
 31
0.0
  0
LINE
  5
1D701
  8
0
 62
     2
 10
109.2324910419919064
 20
131.4651440502613013
 30
0.0
 11
109.2324910419919064
 21
126.4651440502613013
 31
0.0
  0
LINE
  5
1D702
  8
0
 62
     2
 10
42.5658243753249508
 20
131.4651440502613013
 30
0.0
 11
42.5658243753249508
 21
126.4651440502613013
 31
0.0
  0
LINE
  5
1D703
  8
0
 62
     2
 10
108.8324910419919007
 20
126.4651440502613013
 30
0.0
 11
42.9658243753249494
 21
126.4651440502613013
 31
0.0
  0
LINE
  5
1D707
  8
0
 62
     2
 10
40.5658243753249721
 20
135.4651440502613013
 30
0.0
 11
35.5658243753249295
 21
135.4651440502613013
 31
0.0
  0
LINE
  5
1D708
  8
0
 62
     2
 10
40.5658243753249721
 20
136.4651440502613013
 30
0.0
 11
35.5658243753249295
 21
136.4651440502613013
 31
0.0
  0
LINE
  5
1D709
  8
0
 62
     2
 10
35.5658243753249295
 20
135.0651440502612957
 30
0.0
 11
35.5658243753249295
 21
134.66514405026129
 31
0.0
  0
LINE
  5
1D70A
  8
0
 62
     2
 10
35.5658243753249295
 20
136.865144050261307
 30
0.0
 11
35.5658243753249295
 21
140.7630607169271002
 31
0.0
  0
LINE
  5
1D70E
  8
0
 62
     2
 10
40.5658243753249721
 20
133.1318107169281006
 30
0.0
 11
35.5658243753249295
 21
133.1318107169281006
 31
0.0
  0
LINE
  5
1D70F
  8
0
 62
     2
 10
40.5658243753249721
 20
135.4651440502613013
 30
0.0
 11
35.5658243753249295
 21
135.4651440502613013
 31
0.0
  0
LINE
  5
1D710
  8
0
 62
     2
 10
35.5658243753249295
 20
135.0651440502612957
 30
0.0
 11
35.5658243753249295
 21
133.5318107169281063
 31
0.0
  0
LINE
  5
1D711
  8
0
 62
     2
 10
35.5658243753249295
 20
133.1318107169281006
 30
0.0
 11
35.5658243753249295
 21
129.8151440502612104
 31
0.0
  0
LINE
  5
1D716
  8
注釈
  6
BYBLOCK
 62
     2
 10
113.710249823236893
 20
99.1341253268270748
 30
0.0
 11
113.9502498232369021
 21
99.1341253268270748
 31
0.0
  0
LINE
  5
1D71B
  8
注釈
  6
BYBLOCK
 62
     2
 10
112.8989613110259995
 20
81.5382828729981384
 30
0.0
 11
113.1389613110259944
 21
81.5382828729981384
 31
0.0
  0
LINE
  5
1D720
  8
注釈
  6
BYBLOCK
 62
     2
 10
207.1517739521499095
 20
77.5383725861321409
 30
0.0
 11
207.3917739521498902
 21
77.5383725861321409
 31
0.0
  0
LINE
  5
1D724
  8
0
 62
     2
 10
193.429634341384201
 20
54.2618641131372215
 30
0.0
 11
193.429634341384201
 21
49.2618641131372215
 31
0.0
  0
LINE
  5
1D725
  8
0
 62
     2
 10
191.0963010080515971
 20
54.2618641131372215
 30
0.0
 11
191.0963010080515971
 21
49.2618641131372215
 31
0.0
  0
LINE
  5
1D726
  8
0
 62
     2
 10
193.0296343413841953
 20
49.2618641131372215
 30
0.0
 11
191.4963010080516881
 21
49.2618641131372215
 31
0.0
  0
LINE
  5
1D727
  8
0
 62
     2
 10
191.0963010080515971
 20
49.2618641131372215
 30
0.0
 11
187.0046343413843033
 21
49.2618641131372215
 31
0.0
  0
LINE
  5
1D72C
  8
注釈
  6
BYBLOCK
 62
     2
 10
206.8895562716637926
 20
92.0257455905849469
 30
0.0
 11
207.1295562716638017
 21
92.0257455905849469
 31
0.0
  0
LINE
  5
1D731
  8
注釈
  6
BYBLOCK
 62
     2
 10
207.6978771436515103
 20
102.7923492635672034
 30
0.0
 11
207.937877143651491
 21
102.7923492635672034
 31
0.0
  0
LINE
  5
1D736
  8
注釈
  6
BYBLOCK
 62
     2
 10
74.5813355490189451
 20
164.4919146651268989
 30
0.0
 11
74.82133554901894
 21
164.4919146651268989
 31
0.0
  0
LINE
  5
1D73B
  8
注釈
  6
BYBLOCK
 62
     2
 10
134.7076119037405135
 20
164.4281895590389126
 30
0.0
 11
134.9476119037404942
 21
164.4281895590389126
 31
0.0
  0
LINE
  5
1D740
  8
注釈
  6
BYBLOCK
 62
     2
 10
75.0408558757229684
 20
157.2986098015801986
 30
0.0
 11
75.2808558757229633
 21
157.2986098015801986
 31
0.0
  0
ARC
  5
1D744
  8
枠文字
 10
208.38472822104751
 20
7.4404377995246911
 30
0.0
 40
4.0617871121911984
 50
89.7745617639718745
 51
107.4092147121664027
  0
ARC
  5
1D745
  8
枠文字
 10
208.6179874367755929
 20
6.6230828867041582
 30
0.0
 40
4.9115397849237157
 50
107.1528779447303066
 51
122.704169440717294
  0
ARC
  5
1D746
  8
枠文字
 10
208.8445415707336963
 20
6.2373799052559429
 30
0.0
 40
5.3585348111068107
 50
122.5143026686855023
 51
151.4422313375386011
  0
ARC
  5
1D747
  8
枠文字
 10
208.0857092246650097
 20
6.7065795993142121
 30
0.0
 40
4.4679996454210631
 50
152.0752046935008934
 51
162.4664431061345056
  0
ARC
  5
1D748
  8
枠文字
 10
205.5139178796225963
 20
2.2354031766998901
 30
0.0
 40
6.0573570764230471
 50
106.186991376683693
 51
120.5565189679062001
  0
ARC
  5
1D749
  8
枠文字
 10
205.8253567854511914
 20
1.66712102080476
 30
0.0
 40
6.7050846343006603
 50
120.3794716106769016
 51
134.0270165613331983
  0
ARC
  5
1D74A
  8
枠文字
 10
205.7182660841982056
 20
1.7667425802262879
 30
0.0
 40
6.5590323467362941
 50
133.9592055079747013
 51
147.039458179381711
  0
ARC
  5
1D74B
  8
枠文字
 10
205.0885816860499915
 20
2.1844852738905831
 30
0.0
 40
5.8034262729812021
 50
147.1176323386507931
 51
161.2393342340070888
  0
ARC
  5
1D74C
  8
枠文字
 10
204.6300237977405914
 20
2.3697331864764268
 30
0.0
 40
5.3097262345506948
 50
161.5406806768330057
 51
164.7130144987472136
  0
ARC
  5
1D74D
  8
枠文字
 10
203.8825796955678129
 20
2.5632852233063819
 30
0.0
 40
4.537709773950076
 50
164.582165849524614
 51
181.1379416725721967
  0
ARC
  5
1D74E
  8
枠文字
 10
204.8660700626818141
 20
-0.6719745339975871
 30
0.0
 40
6.3534002066756958
 50
136.1264810532640013
 51
150.3280710889802947
  0
ARC
  5
1D74F
  8
枠文字
 10
205.1462055415472037
 20
-0.919246055313633
 30
0.0
 40
6.7267368484302086
 50
116.7901822650073029
 51
136.2619295844953058
  0
ARC
  5
1D750
  8
枠文字
 10
204.773243524299005
 20
-0.2107998902134991
 30
0.0
 40
5.9262456128097432
 50
102.7486763840911976
 51
116.6585473969438027
  0
ARC
  5
1D751
  8
枠文字
 10
204.5542824854211972
 20
0.6729678625809195
 30
0.0
 40
5.0159800657102158
 50
89.787625485509281
 51
102.5369260245061014
  0
ARC
  5
1D752
  8
枠文字
 10
204.5611792655710985
 20
1.614015569805981
 30
0.0
 40
4.074914684922712
 50
71.5301524228426757
 51
89.8355527737715107
  0
ARC
  5
1D753
  8
枠文字
 10
204.7708513380435988
 20
2.322569408440406
 30
0.0
 40
3.3365310435699098
 50
52.918808024222713
 51
71.0905070443448182
  0
ARC
  5
1D754
  8
枠文字
 10
204.8700763320372005
 20
2.496560143788622
 30
0.0
 40
3.1380026865223538
 50
14.1771758758008204
 51
52.4486940522682517
  0
ARC
  5
1D755
  8
枠文字
 10
204.3624113286086867
 20
2.3445845386979061
 30
0.0
 40
3.6674999549959471
 50
1.3016898158532331
 51
14.5366375128180607
  0
ARC
  5
1D756
  8
枠文字
 10
203.161898043195805
 20
5.2120239582317147
 30
0.0
 40
5.6071110217431936
 50
330.2289952864871907
 51
344.3549355515323782
  0
ARC
  5
1D757
  8
枠文字
 10
204.1837754437109993
 20
4.9133746135041472
 30
0.0
 40
4.5425703299294451
 50
344.5063870698631945
 51
1.679278518063033
  0
ARC
  5
1D758
  8
枠文字
 10
205.096022813517493
 20
4.914945913944508
 30
0.0
 40
3.6307558962827868
 50
2.0763637151105461
 51
19.7748915181970411
  0
ARC
  5
1D759
  8
枠文字
 10
205.5323094675079005
 20
5.0525877654275559
 30
0.0
 40
3.173681202453269
 50
20.1013340273335217
 51
39.2240270737054999
  0
ARC
  5
1D75A
  8
枠文字
 10
205.5644154705892959
 20
5.0571577350950596
 30
0.0
 40
3.1459641599955459
 50
39.5293078670317897
 51
67.8762855878673719
  0
ARC
  5
1D75B
  8
枠文字
 10
205.3352888016102895
 20
4.5407132163621942
 30
0.0
 40
3.7107177039316128
 50
67.6020632938433437
 51
83.9860200889547031
  0
ARC
  5
1D75C
  8
枠文字
 10
205.236515446531314
 20
3.8457434609632388
 30
0.0
 40
4.4122843997510834
 50
83.655965679055285
 51
89.5965445308763435
  0
ARC
  5
1D75D
  8
枠文字
 10
205.2366124271379988
 20
3.431829140183623
 30
0.0
 40
4.826188715437512
 50
89.6322976021862132
 51
95.2458690883426158
  0
ARC
  5
1D75E
  8
枠文字
 10
208.2706816517168136
 20
4.1905141537929831
 30
0.0
 40
5.3346459310117824
 50
114.6395327399466026
 51
130.6520302684600949
  0
ARC
  5
1D75F
  8
枠文字
 10
207.9499319586275874
 20
4.8702719428227637
 30
0.0
 40
4.5830651101580457
 50
98.6552813760354184
 51
114.5376629644377005
  0
ARC
  5
1D760
  8
枠文字
 10
207.8179995309062917
 20
5.5799120959626292
 30
0.0
 40
3.86172451616945
 50
89.6240271362009793
 51
98.3045851978673113
  0
ARC
  5
1D761
  8
枠文字
 10
207.8367429994517863
 20
6.2084962727526589
 30
0.0
 40
3.2330639281713678
 50
69.5837170672524792
 51
89.883091755849108
  0
ARC
  5
1D762
  8
枠文字
 10
208.0274493944262986
 20
6.791307061228264
 30
0.0
 40
2.6204531985399968
 50
47.8639240972362074
 51
69.0462712422326916
  0
ARC
  5
1D763
  8
枠文字
 10
208.0812826862253075
 20
6.8819678813744831
 30
0.0
 40
2.5171937255588479
 50
14.8896963289838506
 51
47.3881179982541525
  0
ARC
  5
1D764
  8
枠文字
 10
207.6798880394628952
 20
6.7588533293350173
 30
0.0
 40
2.936788568547088
 50
1.296433486929897
 51
15.1987052863101297
  0
ARC
  5
1D765
  8
枠文字
 10
206.7364343028397116
 20
9.0482933533535164
 30
0.0
 40
4.4712585628904709
 50
330.1867708438023783
 51
344.3996031047425959
  0
ARC
  5
1D766
  8
枠文字
 10
207.5806518628768913
 20
8.8095551309683096
 30
0.0
 40
3.5939395294689822
 50
344.4460081624941949
 51
3.888023540814852
  0
ARC
  5
1D767
  8
枠文字
 10
208.3434497727924963
 20
8.8347796213594592
 30
0.0
 40
2.831311374283807
 50
4.425439662628377
 51
24.0157455462134202
  0
ARC
  5
1D768
  8
枠文字
 10
208.6013813775483072
 20
8.9066522043446685
 30
0.0
 40
2.566757963505641
 50
24.893582883782269
 51
77.5636605950996767
  0
ARC
  5
1D769
  8
枠文字
 10
208.3910393021809
 20
8.1870640790303426
 30
0.0
 40
3.315143496592718
 50
76.6918721903263076
 51
89.8328632735502879
  0
ARC
  5
1D76A
  8
枠文字
 10
210.7652667951738863
 20
1.777726772757745
 30
0.0
 40
0.101722561846982
 50
286.8247116910729915
 51
340.3071140253808835
  0
ARC
  5
1D76B
  8
枠文字
 10
210.2957791563854073
 20
2.9251923085495721
 30
0.0
 40
1.341097728956856
 50
278.5628068442035215
 51
291.8409640360741264
  0
ARC
  5
1D76C
  8
枠文字
 10
209.0877831757024126
 20
9.7914024744278212
 30
0.0
 40
8.3124184001322252
 50
274.3042311627694971
 51
279.749809350062776
  0
ARC
  5
1D76D
  8
枠文字
 10
207.3806883518892903
 20
30.7561314704566193
 30
0.0
 40
29.3464226217227484
 50
269.557644616833727
 51
274.5557542030014133
  0
ARC
  5
1D76E
  8
枠文字
 10
207.0551524581304079
 20
35.6496514696387123
 30
0.0
 40
34.2392110303343031
 50
266.6954060207474981
 51
270.1656119244315732
  0
ARC
  5
1D76F
  8
枠文字
 10
205.7047470956829045
 20
13.8712523796894693
 30
0.0
 40
12.4195286846699204
 50
261.7201575595080953
 51
267.1233650928959946
  0
ARC
  5
1D770
  8
枠文字
 10
204.0614546366628019
 20
3.0182996635855659
 30
0.0
 40
1.4444397218715439
 50
247.0093839856166937
 51
264.2298997619993202
  0
ARC
  5
1D771
  8
枠文字
 10
203.5137680517919136
 20
1.753881153568434
 30
0.0
 40
0.0673363018699618
 50
188.912968722400592
 51
255.8306195216433991
  0
ARC
  5
1D772
  8
枠文字
 10
203.542897996765987
 20
1.7090878494263571
 30
0.0
 40
0.1016374793763753
 50
106.7686079682970046
 51
160.2406452733123103
  0
ARC
  5
1D773
  8
枠文字
 10
204.012597657605312
 20
0.5599822864907372
 30
0.0
 40
1.3426055017126639
 50
98.5609779356566094
 51
111.8194115605541015
  0
ARC
  5
1D774
  8
枠文字
 10
205.2208471944531141
 20
-6.3157058779038238
 30
0.0
 40
8.3233091265464818
 50
94.3019068433145549
 51
99.739970708014468
  0
ARC
  5
1D775
  8
枠文字
 10
206.9277034398627961
 20
-27.2904574126630806
 30
0.0
 40
29.3672837109698186
 50
89.5582556005576009
 51
94.5529850135209387
  0
ARC
  5
1D776
  8
枠文字
 10
207.2524616283382954
 20
-32.1812541383077573
 30
0.0
 40
34.2573487630443978
 50
86.6963356821031539
 51
90.1644778980466981
  0
ARC
  5
1D777
  8
枠文字
 10
208.6029324276692023
 20
-10.4057949497199704
 30
0.0
 40
12.4406029876028192
 50
81.7316747771166945
 51
87.1262815684868883
  0
ARC
  5
1D778
  8
枠文字
 10
210.2466015210125079
 20
0.4657454180099943
 30
0.0
 40
1.447071726855099
 50
67.0437654304681843
 51
84.2331262617761922
  0
ARC
  5
1D779
  8
枠文字
 10
210.7946180805896006
 20
1.733001254134491
 30
0.0
 40
0.067238348321328
 50
8.9385958680851871
 51
75.8986854981886978
  0
LINE
  5
1D77A
  8
枠文字
 10
212.4534998477365093
 20
8.3820284707056345
 30
0.0
 11
215.0955848477364043
 21
8.3820284707056345
 31
0.0
  0
ARC
  5
1D77B
  8
枠文字
 10
215.1477807988337929
 20
6.9580138065163366
 30
0.0
 40
1.4249709404535631
 50
60.8735246432819466
 51
92.0991844703631557
  0
ARC
  5
1D77C
  8
枠文字
 10
215.4336382703218931
 20
7.5814678799366151
 30
0.0
 40
0.7431625185418842
 50
37.6212723579080901
 51
56.725971969837012
  0
ARC
  5
1D77D
  8
枠文字
 10
215.3307498331872978
 20
7.5054645835539393
 30
0.0
 40
0.8710559495582387
 50
357.4156439143802118
 51
37.4497418045801425
  0
ARC
  5
1D77E
  8
枠文字
 10
214.8642344693519988
 20
7.5125263387099137
 30
0.0
 40
1.3374883172565191
 50
345.4682483048129029
 51
358.014565324039097
  0
ARC
  5
1D77F
  8
枠文字
 10
214.7073153029085972
 20
7.5416370265020483
 30
0.0
 40
1.4967336548621879
 50
312.6089194964911826
 51
345.8967725871929133
  0
ARC
  5
1D780
  8
枠文字
 10
214.7053443698248998
 20
7.569710863534576
 30
0.0
 40
1.518831526402086
 50
286.9040539110624195
 51
311.9466621261066734
  0
ARC
  5
1D781
  8
枠文字
 10
214.9114337805220885
 20
5.0986245771737417
 30
0.0
 40
1.0447760699031099
 50
40.4744827000879965
 51
76.970866959694348
  0
ARC
  5
1D782
  8
枠文字
 10
215.1599462551197064
 20
5.3784599479305832
 30
0.0
 40
0.6760589036478157
 50
27.0446379744158314
 51
36.1007425573978367
  0
ARC
  5
1D783
  8
枠文字
 10
214.896922454975595
 20
5.2761122046561706
 30
0.0
 40
0.9572801154063832
 50
347.3279552664143921
 51
25.3423825027354894
  0
ARC
  5
1D784
  8
枠文字
 10
214.2639262894099943
 20
5.318823901755608
 30
0.0
 40
1.5872056216741379
 50
345.4000175848651111
 51
350.8385374985624026
  0
ARC
  5
1D785
  8
枠文字
 10
214.0856695494479993
 20
5.3481574873628022
 30
0.0
 40
1.7671778740762949
 50
321.2570294209465942
 51
345.936503335239081
  0
ARC
  5
1D786
  8
枠文字
 10
214.0378915242581002
 20
5.376252239735682
 30
0.0
 40
1.8220428700692259
 50
297.9590868388760896
 51
321.5082199876230789
  0
ARC
  5
1D787
  8
枠文字
 10
214.1658540918757012
 20
5.2829522748078661
 30
0.0
 40
1.6810669050974909
 50
275.1259550640331213
 51
295.5970031780291833
  0
LINE
  5
1D788
  8
枠文字
 10
214.3160498477363944
 20
3.6086084707056458
 30
0.0
 11
213.6667448477365099
 21
3.542368470705652
 31
0.0
  0
LINE
  5
1D789
  8
枠文字
 10
213.6667448477365099
 20
3.542368470705652
 30
0.0
 11
211.2303098477364074
 21
3.542368470705652
 31
0.0
  0
LINE
  5
1D78A
  8
枠文字
 10
211.2303098477364074
 20
3.542368470705652
 30
0.0
 11
212.4534998477365093
 21
8.3820284707056345
 31
0.0
  0
LINE
  5
1D78B
  8
枠文字
 10
212.9190698477364947
 20
4.5815534707056838
 30
0.0
 11
213.638079847736492
 21
4.5815534707056838
 31
0.0
  0
ARC
  5
1D78C
  8
枠文字
 10
213.6890463693447089
 20
5.5413886043944354
 30
0.0
 40
0.9611873231520229
 50
266.9604918419695991
 51
301.1827524538410898
  0
ARC
  5
1D78D
  8
枠文字
 10
213.7995820337179964
 20
5.2380619928232601
 30
0.0
 40
0.6474756930826502
 50
306.7209793113260048
 51
346.5729458564405832
  0
ARC
  5
1D78E
  8
枠文字
 10
214.067318441408986
 20
5.2024206724076159
 30
0.0
 40
0.379778517056788
 50
342.420002802957697
 51
37.4683038371810824
  0
ARC
  5
1D78F
  8
枠文字
 10
214.1132754715519013
 20
5.1754988878512247
 30
0.0
 40
0.3630462635296587
 50
45.2767803304059413
 51
76.0047923097849605
  0
ARC
  5
1D790
  8
枠文字
 10
213.9141127497674972
 20
4.4064620260421608
 30
0.0
 40
1.1574434709801911
 50
75.6450922392469209
 51
91.5195385004698636
  0
LINE
  5
1D791
  8
枠文字
 10
213.8834198477364907
 20
5.5634984707056798
 30
0.0
 11
213.1671548477364979
 21
5.5634984707056798
 31
0.0
  0
LINE
  5
1D792
  8
枠文字
 10
213.1671548477364979
 20
5.5634984707056798
 30
0.0
 11
212.9190698477364947
 21
4.5815534707056838
 31
0.0
  0
LINE
  5
1D793
  8
枠文字
 10
213.3990848477363897
 20
6.48190347070563
 30
0.0
 11
214.0123898477365003
 21
6.48190347070563
 31
0.0
  0
ARC
  5
1D794
  8
枠文字
 10
214.064086704319692
 20
7.3258822481236843
 30
0.0
 40
0.8455606079475664
 50
266.4947987045130162
 51
301.2083112159745042
  0
ARC
  5
1D795
  8
枠文字
 10
214.1332853571292958
 20
7.0744392045690532
 30
0.0
 40
0.5988843306286921
 50
308.0266514935709097
 51
348.0771909356413971
  0
ARC
  5
1D796
  8
枠文字
 10
214.3666665704735124
 20
7.070659469104843
 30
0.0
 40
0.3724271874305804
 50
341.2121082091509265
 51
34.4316897395703307
  0
ARC
  5
1D797
  8
枠文字
 10
214.4452463623757126
 20
7.0634418466699813
 30
0.0
 40
0.3157414083559706
 50
43.6138282059766382
 51
76.441185344548586
  0
ARC
  5
1D798
  8
枠文字
 10
214.2760986183847081
 20
6.3979998218294423
 30
0.0
 40
1.002328392986181
 50
75.9595797491075331
 51
91.2661861993714467
  0
LINE
  5
1D799
  8
枠文字
 10
214.2539498477364077
 20
7.4000834707056367
 30
0.0
 11
213.6312848477363957
 21
7.4000834707056367
 31
0.0
  0
LINE
  5
1D79A
  8
枠文字
 10
213.6312848477363957
 20
7.4000834707056367
 30
0.0
 11
213.3990848477363897
 21
6.48190347070563
 31
0.0
  0
LINE
  5
1D79B
  8
枠文字
 10
215.8838498477363999
 20
3.542368470705652
 30
0.0
 11
217.1068598477365015
 21
8.3820284707056345
 31
0.0
  0
LINE
  5
1D79C
  8
枠文字
 10
217.1068598477365015
 20
8.3820284707056345
 30
0.0
 11
219.459099847736411
 21
8.3820284707056345
 31
0.0
  0
ARC
  5
1D79D
  8
枠文字
 10
219.5756186119890003
 20
5.3143120781486051
 30
0.0
 40
3.0699284173390882
 50
73.8561888366588164
 51
92.1751768912569673
  0
ARC
  5
1D79E
  8
枠文字
 10
220.1638064469044878
 20
7.5480412145050879
 30
0.0
 40
0.7628023412239968
 50
21.0698800330397589
 51
69.6391164072341553
  0
ARC
  5
1D79F
  8
枠文字
 10
219.808069444108412
 20
7.422222125185022
 30
0.0
 40
1.1400366627574661
 50
345.5354904864723835
 51
20.5430428520174893
  0
ARC
  5
1D7A0
  8
枠文字
 10
219.095684107580297
 20
7.4971369930344691
 30
0.0
 40
1.851555814054499
 50
345.6442340425795123
 51
348.798808209390188
  0
ARC
  5
1D7A1
  8
枠文字
 10
219.1172269822868088
 20
7.4692374373092916
 30
0.0
 40
1.8238970846912439
 50
321.8539172287270844
 51
346.3255241773510988
  0
ARC
  5
1D7A2
  8
枠文字
 10
219.062791851139508
 20
7.5447572499991358
 30
0.0
 40
1.9135267020429609
 50
298.8727875021988893
 51
321.082311053819808
  0
ARC
  5
1D7A3
  8
枠文字
 10
219.0267354012285068
 20
7.7286105960276039
 30
0.0
 40
2.092718346516647
 50
281.4792839454462978
 51
297.306473734561223
  0
ARC
  5
1D7A4
  8
枠文字
 10
219.175711114278613
 20
4.8201536102442306
 30
0.0
 40
0.8983516950934561
 50
49.0403829401806703
 51
72.6761832208242282
  0
ARC
  5
1D7A5
  8
枠文字
 10
218.9332992862321134
 20
4.7961755353783078
 30
0.0
 40
1.088309582922798
 50
24.2799524775350513
 51
40.195185472363157
  0
ARC
  5
1D7A6
  8
枠文字
 10
219.0425982871456085
 20
4.7133228616627161
 30
0.0
 40
1.0298173944245581
 50
12.8736747914058096
 51
30.9977568592650599
  0
LINE
  5
1D7A7
  8
枠文字
 10
220.0465298477363945
 20
4.9427684707056434
 30
0.0
 11
220.3794398477363927
 21
3.542368470705652
 31
0.0
  0
LINE
  5
1D7A8
  8
枠文字
 10
220.3794398477363927
 20
3.542368470705652
 30
0.0
 11
218.7854498477364018
 21
3.542368470705652
 31
0.0
  0
LINE
  5
1D7A9
  8
枠文字
 10
218.7854498477364018
 20
3.542368470705652
 30
0.0
 11
218.4042998477364108
 21
5.0212484707056557
 31
0.0
  0
ARC
  5
1D7AA
  8
枠文字
 10
217.6420230735002974
 20
4.9123572447541459
 30
0.0
 40
0.770015051560029
 50
8.1297004547523013
 51
38.7257443802994814
  0
ARC
  5
1D7AB
  8
枠文字
 10
217.9422206254781997
 20
5.0491724277231551
 30
0.0
 40
0.4574653460990123
 50
48.9327628569443576
 51
92.1905602036295448
  0
LINE
  5
1D7AC
  8
枠文字
 10
217.9247348477364028
 20
5.5063034707056451
 30
0.0
 11
217.7996798477363996
 21
5.5063034707056451
 31
0.0
  0
LINE
  5
1D7AD
  8
枠文字
 10
217.7996798477363996
 20
5.5063034707056451
 30
0.0
 11
217.3035098477363931
 21
3.542368470705652
 31
0.0
  0
LINE
  5
1D7AE
  8
枠文字
 10
217.3035098477363931
 20
3.542368470705652
 30
0.0
 11
215.8838498477363999
 21
3.542368470705652
 31
0.0
  0
LINE
  5
1D7AF
  8
枠文字
 10
218.0303498477364883
 20
6.4179584707056412
 30
0.0
 11
218.6232698477363954
 21
6.4179584707056412
 31
0.0
  0
ARC
  5
1D7B0
  8
枠文字
 10
218.4054677906727022
 20
8.8690529931479798
 30
0.0
 40
2.4607523430869689
 50
275.0779145456614856
 51
284.2927593607968788
  0
ARC
  5
1D7B1
  8
枠文字
 10
218.902843065462605
 20
6.9852825821005826
 30
0.0
 40
0.5127793700474502
 50
282.4017088068567887
 51
317.2691553026709244
  0
ARC
  5
1D7B2
  8
枠文字
 10
218.8391592887302863
 20
7.0740166120365968
 30
0.0
 40
0.6201583485361593
 50
315.239262245086195
 51
345.5021097716833083
  0
ARC
  5
1D7B3
  8
枠文字
 10
219.0512420885067968
 20
7.0508878655339906
 30
0.0
 40
0.4101893517596487
 50
341.209673585882399
 51
33.9824170260481324
  0
ARC
  5
1D7B4
  8
枠文字
 10
219.1553012842508963
 20
7.0471630958871456
 30
0.0
 40
0.3316889688603109
 50
44.6240111567331326
 51
75.832461055182506
  0
ARC
  5
1D7B5
  8
枠文字
 10
218.9355948815920954
 20
6.2060455049893148
 30
0.0
 40
1.2010195000606361
 50
75.4911943509625303
 51
91.7983342263165838
  0
LINE
  5
1D7B6
  8
枠文字
 10
218.8979048477364131
 20
7.406473470705647
 30
0.0
 11
218.2798748477364086
 21
7.406473470705647
 31
0.0
  0
LINE
  5
1D7B7
  8
枠文字
 10
218.2798748477364086
 20
7.406473470705647
 30
0.0
 11
218.0303498477364883
 21
6.4179584707056412
 31
0.0
  0
LINE
  5
1D7B8
  8
枠文字
 10
221.7851048477363918
 20
8.3820284707056345
 30
0.0
 11
223.1985998477364035
 21
8.3820284707056345
 31
0.0
  0
LINE
  5
1D7B9
  8
枠文字
 10
223.1985998477364035
 20
8.3820284707056345
 30
0.0
 11
221.9753198477365004
 21
3.542368470705652
 31
0.0
  0
LINE
  5
1D7BA
  8
枠文字
 10
221.9753198477365004
 20
3.542368470705652
 30
0.0
 11
220.5615998477364883
 21
3.542368470705652
 31
0.0
  0
LINE
  5
1D7BB
  8
枠文字
 10
220.5615998477364883
 20
3.542368470705652
 30
0.0
 11
221.7851048477363918
 21
8.3820284707056345
 31
0.0
  0
LINE
  5
1D7BC
  8
枠文字
 10
223.910319847736389
 20
8.3820284707056345
 30
0.0
 11
226.007094847736397
 21
8.3820284707056345
 31
0.0
  0
ARC
  5
1D7BD
  8
枠文字
 10
226.0540686808242015
 20
5.580361334981724
 30
0.0
 40
2.8020608987654732
 50
78.6033737127370813
 51
90.9605531637887452
  0
ARC
  5
1D7BE
  8
枠文字
 10
226.3412891489130061
 20
6.982030460089204
 30
0.0
 40
1.3712817681497069
 50
63.0020256225099828
 51
78.7950729478829857
  0
ARC
  5
1D7BF
  8
枠文字
 10
226.429917710372905
 20
7.1800236424140786
 30
0.0
 40
1.1546831897503691
 50
26.30791376324418
 51
62.4606229746931874
  0
ARC
  5
1D7C0
  8
枠文字
 10
225.9424516460682071
 20
6.9610322146234651
 30
0.0
 40
1.688831263108028
 50
358.4879419852094884
 51
25.6384280704720702
  0
ARC
  5
1D7C1
  8
枠文字
 10
223.8377263782124089
 20
6.944677644798424
 30
0.0
 40
3.7930733671135899
 50
345.2483551151844949
 51
359.5738860385487783
  0
ARC
  5
1D7C2
  8
枠文字
 10
223.2289232948270978
 20
6.9584752675007167
 30
0.0
 40
4.3876107241438262
 50
330.163222077171099
 51
347.0987649110184066
  0
ARC
  5
1D7C3
  8
枠文字
 10
224.5792284658996039
 20
6.33457082282803
 30
0.0
 40
2.908815807048732
 50
308.5314921816856781
 51
327.5895969958028218
  0
ARC
  5
1D7C4
  8
枠文字
 10
225.0683478802550042
 20
5.6892592710376393
 30
0.0
 40
2.0994056318543892
 50
286.324275845590023
 51
309.0601887235944218
  0
ARC
  5
1D7C5
  8
枠文字
 10
224.7041449693217032
 20
7.0307789192309409
 30
0.0
 40
3.4893200980860191
 50
271.3083192054766073
 51
285.8719752346570999
  0
LINE
  5
1D7C6
  8
枠文字
 10
224.7838148477364939
 20
3.542368470705652
 30
0.0
 11
222.6870398477364859
 21
3.542368470705652
 31
0.0
  0
LINE
  5
1D7C7
  8
枠文字
 10
222.6870398477364859
 20
3.542368470705652
 30
0.0
 11
223.910319847736389
 21
8.3820284707056345
 31
0.0
  0
LINE
  5
1D7C8
  8
枠文字
 10
225.0466148477364072
 20
7.285108470705679
 30
0.0
 11
224.3778248477364059
 21
4.6392434707056642
 31
0.0
  0
LINE
  5
1D7C9
  8
枠文字
 10
224.3778248477364059
 20
4.6392434707056642
 30
0.0
 11
224.722209847736508
 21
4.6392434707056642
 31
0.0
  0
ARC
  5
1D7CA
  8
枠文字
 10
224.8041567356885082
 20
6.2317446027559216
 30
0.0
 40
1.594608148739487
 50
267.0542732342195791
 51
291.0189238218683272
  0
ARC
  5
1D7CB
  8
枠文字
 10
224.9256952284050897
 20
5.6033287044192877
 30
0.0
 40
0.9708882712834217
 50
297.640024421183
 51
329.2196595063069822
  0
ARC
  5
1D7CC
  8
枠文字
 10
224.1091188215239072
 20
6.1232683675930613
 30
0.0
 40
1.93873040218361
 50
328.3679858862033143
 51
341.2531074096870043
  0
ARC
  5
1D7CD
  8
枠文字
 10
221.1096879116738023
 20
7.1833026187699209
 30
0.0
 40
5.1198714078105061
 50
340.8075339831863744
 51
346.0290607212110103
  0
ARC
  5
1D7CE
  8
枠文字
 10
223.2306285030483934
 20
6.7414384443610631
 30
0.0
 40
2.956165564094078
 50
344.4150221195247923
 51
357.0119123760467232
  0
ARC
  5
1D7CF
  8
枠文字
 10
225.3431778323628976
 20
6.650673436208284
 30
0.0
 40
0.8419824618598026
 50
355.686065622945307
 51
24.6055315286486298
  0
ARC
  5
1D7D0
  8
枠文字
 10
225.6404134961103978
 20
6.7073738645218954
 30
0.0
 40
0.5528644265706717
 50
32.1101833226523894
 51
82.9332622479332713
  0
ARC
  5
1D7D1
  8
枠文字
 10
225.4132478008831981
 20
5.776232808399663
 30
0.0
 40
1.508958991814362
 50
78.7190752547297592
 51
90.6021439399397082
  0
LINE
  5
1D7D2
  8
枠文字
 10
225.3973898477364912
 20
7.285108470705679
 30
0.0
 11
225.0466148477364072
 21
7.285108470705679
 31
0.0
  0
LINE
  5
1D7D3
  8
枠文字
 10
230.0498048477365103
 20
5.2959284707056451
 30
0.0
 11
230.3043698477364956
 21
6.3032984707056832
 31
0.0
  0
LINE
  5
1D7D4
  8
枠文字
 10
230.3043698477364956
 20
6.3032984707056832
 30
0.0
 11
232.4840798477364103
 21
6.3032984707056832
 31
0.0
  0
LINE
  5
1D7D5
  8
枠文字
 10
232.4840798477364103
 20
6.3032984707056832
 30
0.0
 11
231.9616298477365035
 21
4.2375284707056391
 31
0.0
  0
ARC
  5
1D7D6
  8
枠文字
 10
228.635618201627409
 20
9.4665109989958296
 30
0.0
 40
6.1971454518364961
 50
289.4458878751137831
 51
302.4593151833396973
  0
ARC
  5
1D7D7
  8
枠文字
 10
229.5858353467586142
 20
7.3193134623581102
 30
0.0
 40
3.8603428990666329
 50
268.9543052362013213
 51
286.7558603060398923
  0
ARC
  5
1D7D8
  8
枠文字
 10
229.4519119355522889
 20
6.1995493018728114
 30
0.0
 40
2.740670934186479
 50
248.9158125929467076
 51
271.3270674414403061
  0
ARC
  5
1D7D9
  8
枠文字
 10
229.004344542861304
 20
4.8593064271864801
 30
0.0
 40
1.3307116479981069
 50
236.2206898820600998
 51
246.1361134443309027
  0
ARC
  5
1D7DA
  8
枠文字
 10
229.0310742465138958
 20
4.8808332506080641
 30
0.0
 40
1.3635045382649711
 50
190.6768014419693031
 51
235.7900331205460986
  0
ARC
  5
1D7DB
  8
枠文字
 10
230.1419388737971872
 20
5.1657856706244223
 30
0.0
 40
2.509028259279213
 50
168.8164503810168924
 51
192.3717147671212047
  0
ARC
  5
1D7DC
  8
枠文字
 10
231.7375287718456889
 20
4.9528419972027846
 30
0.0
 40
4.1168488754362489
 50
165.8044784944430887
 51
170.216246005154801
  0
ARC
  5
1D7DD
  8
枠文字
 10
231.4767522174959993
 20
5.041940819274294
 30
0.0
 40
3.8422508665240178
 50
147.3720260493348064
 51
166.1389199531456029
  0
ARC
  5
1D7DE
  8
枠文字
 10
231.0850306265980123
 20
5.2523094292108983
 30
0.0
 40
3.3990906192290371
 50
142.0941684348761953
 51
146.7982469045979883
  0
ARC
  5
1D7DF
  8
枠文字
 10
230.7581330692831045
 20
5.5143695954141787
 30
0.0
 40
2.9801665841960991
 50
114.3016217875175045
 51
142.2083025589440979
  0
ARC
  5
1D7E0
  8
枠文字
 10
230.6459215621904946
 20
5.631260352548999
 30
0.0
 40
2.8279725214653708
 50
91.1497867990215553
 51
113.2041842212219933
  0
ARC
  5
1D7E1
  8
枠文字
 10
230.8250232983631918
 20
4.0645590422083311
 30
0.0
 40
4.4004293222596704
 50
89.8072760982080069
 51
93.0723363237295445
  0
ARC
  5
1D7E2
  8
枠文字
 10
230.9235650794747983
 20
4.1701484665588238
 30
0.0
 40
4.2956313093952021
 50
80.8406804002664501
 51
91.1170106214559041
  0
ARC
  5
1D7E3
  8
枠文字
 10
231.3863466405609017
 20
6.9787884298770448
 30
0.0
 40
1.449170263608099
 50
67.7227908608400071
 51
81.2281772025524731
  0
ARC
  5
1D7E4
  8
枠文字
 10
231.5318395151751076
 20
7.350344482328663
 30
0.0
 40
1.0502107343711531
 50
29.6019412194166698
 51
67.3834963641902931
  0
ARC
  5
1D7E5
  8
枠文字
 10
231.2697895529747996
 20
7.2320739193612962
 30
0.0
 40
1.336744641815153
 50
12.0284717445865095
 51
28.4612395168975389
  0
ARC
  5
1D7E6
  8
枠文字
 10
230.5451895197865042
 20
7.0810688145266329
 30
0.0
 40
2.0769072424672519
 50
0.3851088717710565
 51
11.9370111444875704
  0
LINE
  5
1D7E7
  8
枠文字
 10
232.622049847736406
 20
7.095028470705655
 30
0.0
 11
231.1929848477365113
 21
6.8390684707056391
 31
0.0
  0
ARC
  5
1D7E8
  8
枠文字
 10
230.6025158312575059
 20
6.8314017843265651
 30
0.0
 40
0.5905187867475111
 50
0.7438901581176768
 51
45.9041293427419319
  0
ARC
  5
1D7E9
  8
枠文字
 10
230.6567607651062985
 20
6.836221716202493
 30
0.0
 40
0.5504628943777249
 50
49.6125561073624581
 51
75.1740881864605655
  0
ARC
  5
1D7EA
  8
枠文字
 10
230.550048645538709
 20
6.4205802094559301
 30
0.0
 40
0.979577795260865
 50
75.3610322459809794
 51
90.7068026432151555
  0
ARC
  5
1D7EB
  8
枠文字
 10
230.5397945519781899
 20
6.2271327734678348
 30
0.0
 40
1.1729521243291461
 50
90.0893765151626837
 51
134.8680212611357092
  0
ARC
  5
1D7EC
  8
枠文字
 10
230.7546914633662141
 20
5.979751711951252
 30
0.0
 40
1.5000485881627019
 50
134.0194005097133925
 51
149.6127741090014069
  0
ARC
  5
1D7ED
  8
枠文字
 10
231.7876990324784003
 20
5.3919632721785167
 30
0.0
 40
2.6885206771000361
 50
149.9430192559138959
 51
167.4256009886360914
  0
ARC
  5
1D7EE
  8
枠文字
 10
231.951724057660897
 20
5.2120544386600081
 30
0.0
 40
2.8911648733771278
 50
164.6523584883343005
 51
177.1184240152595066
  0
ARC
  5
1D7EF
  8
枠文字
 10
230.0787296558154935
 20
5.2875784895884888
 30
0.0
 40
1.0169145124221051
 50
176.0630516516573039
 51
205.1737799455295885
  0
ARC
  5
1D7F0
  8
枠文字
 10
229.7119145958795912
 20
5.1731181311002583
 30
0.0
 40
0.6384089366191529
 50
209.8855726606377061
 51
256.4482021359069108
  0
ARC
  5
1D7F1
  8
枠文字
 10
229.837580477737589
 20
5.6305072599858201
 30
0.0
 40
1.1126112100292189
 50
255.6762564748867987
 51
270.6537320487821034
  0
ARC
  5
1D7F2
  8
枠文字
 10
229.8459522460840105
 20
6.100388060096253
 30
0.0
 40
1.582425493276763
 50
270.1565110902594142
 51
287.4380551533121775
  0
ARC
  5
1D7F3
  8
枠文字
 10
229.2557425049122912
 20
7.7097540416592079
 30
0.0
 40
3.295688844507493
 50
288.8428852950472105
 51
299.4190851209016273
  0
LINE
  5
1D7F4
  8
枠文字
 10
230.874564847736508
 20
4.8390434707056462
 30
0.0
 11
230.9902148477364108
 21
5.2959284707056451
 31
0.0
  0
LINE
  5
1D7F5
  8
枠文字
 10
230.9902148477364108
 20
5.2959284707056451
 30
0.0
 11
230.0498048477365103
 21
5.2959284707056451
 31
0.0
  0
LINE
  5
1D7F6
  8
枠文字
 10
233.5250648477363882
 20
8.3820284707056345
 30
0.0
 11
237.3045248477363884
 21
8.3820284707056345
 31
0.0
  0
LINE
  5
1D7F7
  8
枠文字
 10
237.3045248477363884
 20
8.3820284707056345
 30
0.0
 11
237.0434798477363927
 21
7.3490534707056678
 31
0.0
  0
LINE
  5
1D7F8
  8
枠文字
 10
237.0434798477363927
 20
7.3490534707056678
 30
0.0
 11
234.677244847736489
 21
7.3490534707056678
 31
0.0
  0
LINE
  5
1D7F9
  8
枠文字
 10
234.677244847736489
 20
7.3490534707056678
 30
0.0
 11
234.4837898477364035
 21
6.5842334707056818
 31
0.0
  0
LINE
  5
1D7FA
  8
枠文字
 10
234.4837898477364035
 20
6.5842334707056818
 30
0.0
 11
236.681949847736405
 21
6.5842334707056818
 31
0.0
  0
LINE
  5
1D7FB
  8
枠文字
 10
236.681949847736405
 20
6.5842334707056818
 30
0.0
 11
236.4320198477363988
 21
5.5954484707056746
 31
0.0
  0
LINE
  5
1D7FC
  8
枠文字
 10
236.4320198477363988
 20
5.5954484707056746
 30
0.0
 11
234.2343548477363981
 21
5.5954484707056746
 31
0.0
  0
LINE
  5
1D7FD
  8
枠文字
 10
234.2343548477363981
 20
5.5954484707056746
 30
0.0
 11
233.9923448477364047
 21
4.6392434707056642
 31
0.0
  0
LINE
  5
1D7FE
  8
枠文字
 10
233.9923448477364047
 20
4.6392434707056642
 30
0.0
 11
236.4267548477363903
 21
4.6392434707056642
 31
0.0
  0
LINE
  5
1D7FF
  8
枠文字
 10
236.4267548477363903
 20
4.6392434707056642
 30
0.0
 11
236.1495548477363968
 21
3.542368470705652
 31
0.0
  0
LINE
  5
1D800
  8
枠文字
 10
236.1495548477363968
 20
3.542368470705652
 30
0.0
 11
232.3016048477363995
 21
3.542368470705652
 31
0.0
  0
LINE
  5
1D801
  8
枠文字
 10
232.3016048477363995
 20
3.542368470705652
 30
0.0
 11
233.5250648477363882
 21
8.3820284707056345
 31
0.0
  0
ARC
  5
1D802
  8
枠文字
 10
242.7034801185365893
 20
5.0134604015380608
 30
0.0
 40
3.985837733320281
 50
147.7525971632809103
 51
166.2771445676571886
  0
ARC
  5
1D803
  8
枠文字
 10
241.8665316204111946
 20
5.4907499032886582
 30
0.0
 40
3.0236210073730931
 50
130.069066414651104
 51
146.939504012971895
  0
ARC
  5
1D804
  8
枠文字
 10
241.7478557943861972
 20
5.609465279490534
 30
0.0
 40
2.8564152225527701
 50
88.5481201800049575
 51
129.7802089671648957
  0
ARC
  5
1D805
  8
枠文字
 10
241.873726186532906
 20
5.8587890680999681
 30
0.0
 40
2.6067233982649038
 50
68.0444921811769632
 51
91.1759320652769247
  0
ARC
  5
1D806
  8
枠文字
 10
242.2783714922159959
 20
7.0041262787316754
 30
0.0
 40
1.394165998988814
 50
37.1528396799380332
 51
65.8688005586071483
  0
ARC
  5
1D807
  8
枠文字
 10
242.3330495395804007
 20
7.0641639079587879
 30
0.0
 40
1.3144104340012039
 50
34.8928281860840315
 51
36.5064144919185125
  0
ARC
  5
1D808
  8
枠文字
 10
242.1482669611656036
 20
6.9538178230715912
 30
0.0
 40
1.529171671139393
 50
4.7213392611339762
 51
34.3234785295051594
  0
ARC
  5
1D809
  8
枠文字
 10
240.8705325147857081
 20
6.814466987261758
 30
0.0
 40
2.8142423131008321
 50
345.0625063153470933
 51
5.4076255603413372
  0
ARC
  5
1D80A
  8
枠文字
 10
239.3680282694353991
 20
7.065058465841588
 30
0.0
 40
4.3329996056555684
 50
345.7505065124515795
 51
346.9824634765766973
  0
ARC
  5
1D80B
  8
枠文字
 10
239.4237805933537118
 20
6.993037796858637
 30
0.0
 40
4.26160412755062
 50
328.4923948782820275
 51
346.504526813329278
  0
ARC
  5
1D80C
  8
枠文字
 10
240.5351229971126941
 20
6.4048794579414672
 30
0.0
 40
3.007774569557415
 50
323.2952654849320879
 51
326.9805880008856889
  0
ARC
  5
1D80D
  8
枠文字
 10
240.609093734568205
 20
6.3407513992106486
 30
0.0
 40
2.9101504083623659
 50
301.5947601662205102
 51
323.4370500979965186
  0
ARC
  5
1D80E
  8
枠文字
 10
240.6454327537547897
 20
6.3000075759673813
 30
0.0
 40
2.856423695595542
 50
297.2942359294559083
 51
301.4020641808969003
  0
ARC
  5
1D80F
  8
枠文字
 10
240.7223438006801075
 20
6.1823987381329379
 30
0.0
 40
2.7166789441643648
 50
274.4903292873145233
 51
296.9901681630202006
  0
ARC
  5
1D810
  8
枠文字
 10
240.6125622721540935
 20
7.0662468702135612
 30
0.0
 40
3.60663361870344
 50
269.9800242771323724
 51
275.1297209887060262
  0
ARC
  5
1D811
  8
枠文字
 10
240.5458651519419959
 20
6.2390401646499933
 30
0.0
 40
2.7801969535980389
 50
248.9055603910231866
 51
271.3487406626658185
  0
ARC
  5
1D812
  8
枠文字
 10
240.1915937724716912
 20
5.0754245586439648
 30
0.0
 40
1.5695361395507781
 50
239.6964235952588922
 51
245.6818838212095102
  0
ARC
  5
1D813
  8
枠文字
 10
240.0587448597565867
 20
4.826188315257645
 30
0.0
 40
1.287368955726192
 50
206.8460866261413003
 51
239.2040453520820051
  0
ARC
  5
1D814
  8
枠文字
 10
240.4752074537695137
 20
5.052492657801511
 30
0.0
 40
1.7611987838424421
 50
196.7224245132159126
 51
207.2963811449160971
  0
ARC
  5
1D815
  8
枠文字
 10
240.8509641574497095
 20
5.126127411512444
 30
0.0
 40
2.1425819481999651
 50
170.1619169335529875
 51
195.7169537804900017
  0
ARC
  5
1D816
  8
枠文字
 10
242.9587544359123115
 20
4.9073245962379346
 30
0.0
 40
4.259215803144345
 50
165.7047646944598114
 51
172.1069549229179074
  0
ARC
  5
1D817
  8
枠文字
 10
242.8403347333494935
 20
5.2323434635195341
 30
0.0
 40
2.6950814305326838
 50
164.5735447702114982
 51
177.6191137185803086
  0
ARC
  5
1D818
  8
枠文字
 10
241.0904805007102141
 20
5.2892304176172216
 30
0.0
 40
0.9445076402840032
 50
176.6572591304606021
 51
204.6174517497078966
  0
ARC
  5
1D819
  8
枠文字
 10
240.7492994730289126
 20
5.1739767091703266
 30
0.0
 40
0.5875149858623611
 50
208.2617181483086028
 51
257.2898344849895125
  0
ARC
  5
1D81A
  8
枠文字
 10
240.8398767339739095
 20
5.5411120703367347
 30
0.0
 40
0.9656123894004508
 50
256.8400107177135965
 51
270.4021908845253961
  0
ARC
  5
1D81B
  8
枠文字
 10
240.846336831289392
 20
5.700609577084621
 30
0.0
 40
1.1250861513241539
 50
270.016195204652206
 51
313.8545177137127098
  0
ARC
  5
1D81C
  8
枠文字
 10
240.682624897776293
 20
5.8320675200785059
 30
0.0
 40
1.3335779702753201
 50
315.013546505270881
 51
331.0666571104605964
  0
ARC
  5
1D81D
  8
枠文字
 10
239.1102241374680943
 20
6.6795382056966179
 30
0.0
 40
3.1197739376624209
 50
331.4160143473408766
 51
347.7094341875276768
  0
ARC
  5
1D81E
  8
枠文字
 10
239.860779243000394
 20
6.6487541556778922
 30
0.0
 40
2.3833992721030581
 50
344.5901647894654047
 51
358.2366466253545809
  0
ARC
  5
1D81F
  8
枠文字
 10
241.3330485789581132
 20
6.6163723033944564
 30
0.0
 40
0.9109225736326063
 50
357.4228767549544159
 51
25.9275214688659297
  0
ARC
  5
1D820
  8
枠文字
 10
241.6318622233818871
 20
6.7209528141248187
 30
0.0
 40
0.5975807231226075
 50
29.4386399137980312
 51
77.761838345270732
  0
ARC
  5
1D821
  8
枠文字
 10
241.5370797336516944
 20
6.3365212211112052
 30
0.0
 40
0.9934301130975057
 50
77.1194225658348955
 51
90.3887238516184368
  0
ARC
  5
1D822
  8
枠文字
 10
241.5345494158133874
 20
6.2521233614020533
 30
0.0
 40
1.0778133298973001
 50
90.2237781727974806
 51
135.3506898898851887
  0
ARC
  5
1D823
  8
枠文字
 10
241.7431588591958871
 20
6.0118809726444651
 30
0.0
 40
1.395268448852593
 50
134.3523626774660045
 51
150.3132525895987044
  0
ARC
  5
1D824
  8
枠文字
 10
242.9395324959216964
 20
5.3482501266879003
 30
0.0
 40
2.7633279261275989
 50
150.6447260190614088
 51
167.4385154248510901
  0
LINE
  5
1D825
  8
枠文字
 10
244.6236398477365128
 20
8.3820284707056345
 30
0.0
 11
245.9406098477363969
 21
8.3820284707056345
 31
0.0
  0
LINE
  5
1D826
  8
枠文字
 10
245.9406098477363969
 20
8.3820284707056345
 30
0.0
 11
246.9797498477364002
 21
5.7075434707056862
 31
0.0
  0
LINE
  5
1D827
  8
枠文字
 10
246.9797498477364002
 20
5.7075434707056862
 30
0.0
 11
247.6561448477364138
 21
8.3820284707056345
 31
0.0
  0
LINE
  5
1D828
  8
枠文字
 10
247.6561448477364138
 20
8.3820284707056345
 30
0.0
 11
248.9887748477364937
 21
8.3820284707056345
 31
0.0
  0
LINE
  5
1D829
  8
枠文字
 10
248.9887748477364937
 20
8.3820284707056345
 30
0.0
 11
247.765314847736505
 21
3.542368470705652
 31
0.0
  0
LINE
  5
1D82A
  8
枠文字
 10
247.765314847736505
 20
3.542368470705652
 30
0.0
 11
246.4326848477365104
 21
3.542368470705652
 31
0.0
  0
LINE
  5
1D82B
  8
枠文字
 10
246.4326848477365104
 20
3.542368470705652
 30
0.0
 11
245.3986298477364016
 21
6.2025434707056331
 31
0.0
  0
LINE
  5
1D82C
  8
枠文字
 10
245.3986298477364016
 20
6.2025434707056331
 30
0.0
 11
244.7267348477363953
 21
3.542368470705652
 31
0.0
  0
LINE
  5
1D82D
  8
枠文字
 10
244.7267348477363953
 20
3.542368470705652
 30
0.0
 11
243.4003148477364959
 21
3.542368470705652
 31
0.0
  0
LINE
  5
1D82E
  8
枠文字
 10
243.4003148477364959
 20
3.542368470705652
 30
0.0
 11
244.6236398477365128
 21
8.3820284707056345
 31
0.0
  0
LINE
  5
1D82F
  8
枠文字
 10
249.6033398477364074
 20
8.3820284707056345
 30
0.0
 11
253.3832498477364936
 21
8.3820284707056345
 31
0.0
  0
LINE
  5
1D830
  8
枠文字
 10
253.3832498477364936
 20
8.3820284707056345
 30
0.0
 11
253.1220248477364976
 21
7.3490534707056678
 31
0.0
  0
LINE
  5
1D831
  8
枠文字
 10
253.1220248477364976
 20
7.3490534707056678
 30
0.0
 11
250.7561048477365944
 21
7.3490534707056678
 31
0.0
  0
LINE
  5
1D832
  8
枠文字
 10
250.7561048477365944
 20
7.3490534707056678
 30
0.0
 11
250.5625148477363098
 21
6.5842334707056818
 31
0.0
  0
LINE
  5
1D833
  8
枠文字
 10
250.5625148477363098
 20
6.5842334707056818
 30
0.0
 11
252.7603598477365097
 21
6.5842334707056818
 31
0.0
  0
LINE
  5
1D834
  8
枠文字
 10
252.7603598477365097
 20
6.5842334707056818
 30
0.0
 11
252.5108798477365042
 21
5.5954484707056746
 31
0.0
  0
LINE
  5
1D835
  8
枠文字
 10
252.5108798477365042
 20
5.5954484707056746
 30
0.0
 11
250.3124498477363886
 21
5.5954484707056746
 31
0.0
  0
LINE
  5
1D836
  8
枠文字
 10
250.3124498477363886
 20
5.5954484707056746
 30
0.0
 11
250.070889847736396
 21
4.6392434707056642
 31
0.0
  0
LINE
  5
1D837
  8
枠文字
 10
250.070889847736396
 20
4.6392434707056642
 30
0.0
 11
252.50534484773641
 21
4.6392434707056642
 31
0.0
  0
LINE
  5
1D838
  8
枠文字
 10
252.50534484773641
 20
4.6392434707056642
 30
0.0
 11
252.2285948477363888
 21
3.542368470705652
 31
0.0
  0
LINE
  5
1D839
  8
枠文字
 10
252.2285948477363888
 20
3.542368470705652
 30
0.0
 11
248.3802848477365046
 21
3.542368470705652
 31
0.0
  0
LINE
  5
1D83A
  8
枠文字
 10
248.3802848477365046
 20
3.542368470705652
 30
0.0
 11
249.6033398477364074
 21
8.3820284707056345
 31
0.0
  0
TEXT
  5
1D83B
  8
注釈
 10
4.0839114094224271
 20
24.8917881316228886
 30
0.0
 40
3.0
  1
表示基板：クリアアクリル t2+アクリルマット板t5貼り合わせ
  7
角ゴ
  0
TEXT
  5
1D83C
  8
注釈
 10
3.6839114094224259
 20
19.8917881316228886
 30
0.0
 40
3.0
  1
ブラケット：スライドロック脱着式
  7
角ゴ
  0
TEXT
  5
1D83D
  8
注釈
 10
4.0839114094224271
 20
14.8917881316228904
 30
0.0
 40
3.0
  1
表示方法：UV印刷
  7
角ゴ
  0
LINE
  5
1D83F
  8
0
  6
BYBLOCK
 62
     0
 10
193.2296343413842123
 20
49.2618641131372215
 30
0.0
 11
193.0296343413841953
 21
49.2618641131372215
 31
0.0
  0
LINE
  5
1D841
  8
0
  6
BYBLOCK
 62
     0
 10
194.6296343413847012
 20
49.2618641131372215
 30
0.0
 11
194.8296343413846898
 21
49.2618641131372215
 31
0.0
  0
TEXT
  5
1D842
  8
0
 62
     2
 10
195.8546343413846955
 20
49.8868641131372286
 30
0.0
 40
2.399999999999999
  1
3
  7
角ゴ
  0
LINE
  5
1D844
  8
0
  6
BYBLOCK
 62
     0
 10
184.4296343414079047
 20
89.4077477421930809
 30
0.0
 11
184.4296343414079047
 21
89.207747742193078
 31
0.0
  0
LINE
  5
1D846
  8
0
  6
BYBLOCK
 62
     0
 10
184.42963434140799
 20
56.4618641131372527
 30
0.0
 11
184.42963434140799
 21
56.6618641131372485
 31
0.0
  0
TEXT
  5
1D847
  8
0
 62
     2
 10
183.80463434140799
 20
70.5348059276651043
 30
0.0
 40
2.399999999999999
  1
100
 50
90.0
  7
角ゴ
  0
LINE
  5
1D849
  8
0
  6
BYBLOCK
 62
     0
 10
35.5658577086577381
 20
58.7411144088602697
 30
0.0
 11
35.5658577086577381
 21
58.5411144088602668
 31
0.0
  0
LINE
  5
1D84B
  8
0
  6
BYBLOCK
 62
     0
 10
35.5658577086577381
 20
56.4744144088602766
 30
0.0
 11
35.5658577086577381
 21
56.6744144088602795
 31
0.0
  0
TEXT
  5
1D84C
  8
0
 62
     2
 10
34.9408577086577381
 20
56.9744310755271073
 30
0.0
 40
2.399999999999999
  1
8
 50
90.0
  7
角ゴ
  0
LINE
  5
1D84E
  8
0
  6
BYBLOCK
 62
     0
 10
42.7658577086568386
 20
49.2744144088602525
 30
0.0
 11
42.9658577086568272
 21
49.2744144088602525
 31
0.0
  0
LINE
  5
1D850
  8
0
  6
BYBLOCK
 62
     0
 10
109.0325243753238027
 20
49.2744144088602525
 30
0.0
 11
108.8325243753237999
 21
49.2744144088602525
 31
0.0
  0
TEXT
  5
1D851
  8
0
 62
     2
 10
73.0991910419903235
 20
49.8994144088602596
 30
0.0
 40
2.399999999999999
  1
200
  7
角ゴ
  0
LINE
  5
1D853
  8
0
  6
BYBLOCK
 62
     0
 10
35.5658910420089711
 20
72.0747810755271558
 30
0.0
 11
35.5658910420089711
 21
71.874781075527153
 31
0.0
  0
LINE
  5
1D855
  8
0
  6
BYBLOCK
 62
     0
 10
35.5658910420089711
 20
59.1411144088602825
 30
0.0
 11
35.5658910420089711
 21
59.3411144088602711
 31
0.0
  0
TEXT
  5
1D856
  8
0
 62
     2
 10
34.9408910420089782
 20
63.80794774219369
 30
0.0
 40
2.399999999999999
  1
40
 50
90.0
  7
角ゴ
  0
LINE
  5
1D858
  8
0
  6
BYBLOCK
 62
     0
 10
30.0658243753415597
 20
89.4077477421930666
 30
0.0
 11
30.0658243753415597
 21
89.2077477421930638
 31
0.0
  0
LINE
  5
1D85A
  8
0
  6
BYBLOCK
 62
     0
 10
30.0658243753415597
 20
56.4744144088602766
 30
0.0
 11
30.0658243753415597
 21
56.6744144088602795
 31
0.0
  0
TEXT
  5
1D85B
  8
0
 62
     2
 10
29.440824375341581
 20
70.541081075526634
 30
0.0
 40
2.399999999999999
  1
100
 50
90.0
  7
角ゴ
  0
LINE
  5
1D85D
  8
0
  6
BYBLOCK
 62
     0
 10
35.5658910420089711
 20
89.4077477421930809
 30
0.0
 11
35.5658910420089711
 21
89.207747742193078
 31
0.0
  0
LINE
  5
1D85F
  8
0
  6
BYBLOCK
 62
     0
 10
35.5658910420089711
 20
72.4747810755271615
 30
0.0
 11
35.5658910420089711
 21
72.6747810755271644
 31
0.0
  0
TEXT
  5
1D860
  8
0
 62
     2
 10
34.9408910420089782
 20
78.9412644088600928
 30
0.0
 40
2.399999999999999
  1
52
 50
90.0
  7
角ゴ
  0
LINE
  5
1D862
  8
0
  6
BYBLOCK
 62
     0
 10
206.1617974904210939
 20
71.0681392609983078
 30
0.0
 11
206.1617974904210939
 21
70.868139260998305
 31
0.0
  0
LINE
  5
1D864
  8
0
  6
BYBLOCK
 62
     0
 10
206.1617974904212076
 20
56.4618641131372527
 30
0.0
 11
206.1617974904212076
 21
56.6618641131372485
 31
0.0
  0
TEXT
  5
1D865
  8
0
 62
     2
 10
205.5367974904210939
 20
61.7650016870677092
 30
0.0
 40
2.399999999999999
  1
45
 50
90.0
  7
角ゴ
  0
LINE
  5
1D867
  8
0
  6
BYBLOCK
 62
     0
 10
206.1617974904212076
 20
89.4077477421930809
 30
0.0
 11
206.1617974904212076
 21
89.207747742193078
 31
0.0
  0
LINE
  5
1D869
  8
0
  6
BYBLOCK
 62
     0
 10
206.1617974904212076
 20
71.4681392609983135
 30
0.0
 11
206.1617974904212076
 21
71.6681392609983163
 31
0.0
  0
TEXT
  5
1D86A
  8
0
 62
     2
 10
205.5367974904210939
 20
78.4379435015956261
 30
0.0
 40
2.399999999999999
  1
55
 50
90.0
  7
角ゴ
  0
LINE
  5
1D86C
  8
0
  6
BYBLOCK
 62
     0
 10
109.0324910419919036
 20
148.1759285941321878
 30
0.0
 11
108.8324910419919007
 21
148.1759285941321878
 31
0.0
  0
LINE
  5
1D86E
  8
0
  6
BYBLOCK
 62
     0
 10
92.3491577086575148
 20
148.1759285941321878
 30
0.0
 11
92.5491577086575319
 21
148.1759285941321878
 31
0.0
  0
TEXT
  5
1D86F
  8
寸法
 62
     2
 10
97.4908243753247206
 20
148.8009285941321025
 30
0.0
 40
2.399999999999999
  1
51.3
  7
角ゴ
  0
LINE
  5
1D871
  8
0
  6
BYBLOCK
 62
     0
 10
42.7658243753249465
 20
148.1759285941321878
 30
0.0
 11
42.9658243753249494
 21
148.1759285941321878
 31
0.0
  0
LINE
  5
1D873
  8
0
  6
BYBLOCK
 62
     0
 10
59.4491577086575234
 20
148.1759285941321878
 30
0.0
 11
59.2491577086575205
 21
148.1759285941321878
 31
0.0
  0
TEXT
  5
1D874
  8
寸法
 62
     2
 10
47.9074910419912428
 20
148.8009285941321025
 30
0.0
 40
2.399999999999999
  1
51.3
  7
角ゴ
  0
LINE
  5
1D876
  8
0
  6
BYBLOCK
 62
     0
 10
59.849157708657529
 20
148.1759285941321878
 30
0.0
 11
60.0491577086575319
 21
148.1759285941321878
 31
0.0
  0
LINE
  5
1D878
  8
0
  6
BYBLOCK
 62
     0
 10
91.9491577086575234
 20
148.1759285941321878
 30
0.0
 11
91.7491577086575205
 21
148.1759285941321878
 31
0.0
  0
TEXT
  5
1D879
  8
寸法
 62
     2
 10
72.2991577086575319
 20
148.8009285941321025
 30
0.0
 40
2.399999999999999
  1
97.5
  7
角ゴ
  0
LINE
  5
1D87B
  8
0
  6
BYBLOCK
 62
     0
 10
109.0324910419919036
 20
126.4651440502613013
 30
0.0
 11
108.8324910419919007
 21
126.4651440502613013
 31
0.0
  0
LINE
  5
1D87D
  8
0
  6
BYBLOCK
 62
     0
 10
42.7658243753249465
 20
126.4651440502613013
 30
0.0
 11
42.9658243753249494
 21
126.4651440502613013
 31
0.0
  0
TEXT
  5
1D87E
  8
0
 62
     2
 10
73.0991577086584385
 20
127.0901440502612019
 30
0.0
 40
2.399999999999999
  1
200
  7
角ゴ
  0
LINE
  5
1D880
  8
0
  6
BYBLOCK
 62
     0
 10
35.5658243753249295
 20
135.2651440502613127
 30
0.0
 11
35.5658243753249295
 21
135.0651440502612957
 31
0.0
  0
LINE
  5
1D882
  8
0
  6
BYBLOCK
 62
     0
 10
35.5658243753249295
 20
136.66514405026129
 30
0.0
 11
35.5658243753249295
 21
136.865144050261307
 31
0.0
  0
TEXT
  5
1D883
  8
0
 62
     2
 10
34.9408243753249366
 20
138.5380607169269922
 30
0.0
 40
2.399999999999999
  1
3
 50
90.0
  7
角ゴ
  0
LINE
  5
1D885
  8
0
  6
BYBLOCK
 62
     0
 10
35.5658243753249295
 20
135.2651440502613127
 30
0.0
 11
35.5658243753249295
 21
135.0651440502612957
 31
0.0
  0
LINE
  5
1D887
  8
0
  6
BYBLOCK
 62
     0
 10
35.5658243753249295
 20
133.3318107169280893
 30
0.0
 11
35.5658243753249295
 21
133.5318107169281063
 31
0.0
  0
TEXT
  5
1D888
  8
0
 62
     2
 10
34.9408243753249366
 20
130.4401440502610967
 30
0.0
 40
2.399999999999999
  1
7
 50
90.0
  7
角ゴ
  0
TEXT
  5
1D889
  8
注釈
 62
     2
 10
115.2835831565697049
 20
99.7341253268269838
 30
0.0
 40
3.0
  1
表示基板：透明アクリル t2
  7
角ゴ
  0
TEXT
  5
1D88A
  8
注釈
 62
     2
 10
115.2835831565697049
 20
94.7341253268269838
 30
0.0
 40
3.0
  1
　　　　　　木目調UV印刷
  7
角ゴ
  0
LINE
  5
1D88B
  8
注釈
  6
BYBLOCK
 62
     2
 10
99.3375583945028069
 20
83.9151959025581391
 30
0.0
 11
113.710249823236893
 21
99.1341253268270748
 31
0.0
  0
LINE
  5
1D88D
  8
0
  6
BYBLOCK
 62
     0
 10
99.1086901279373222
 20
83.6728522876836536
 30
0.0
 11
99.3375583945028069
 21
83.9151959025581391
 31
0.0
  0
LINE
  5
1D88E
  8
注釈
  6
BYBLOCK
 62
     2
 10
113.9502498232369021
 20
99.1341253268270748
 30
0.0
 11
161.6835831565703074
 21
99.1341253268270748
 31
0.0
  0
TEXT
  5
1D88F
  8
注釈
 62
     2
 10
114.0722946443591042
 20
82.1382828729980332
 30
0.0
 40
3.0
  1
ネームプレート：アクリル板 t1.5
  7
角ゴ
  0
TEXT
  5
1D890
  8
注釈
 62
     2
 10
160.6722946443591127
 20
77.1382828729980332
 30
0.0
 40
3.0
  1
差替式
  7
角ゴ
  0
LINE
  5
1D891
  8
注釈
  6
BYBLOCK
 62
     2
 10
98.526269882291416
 20
66.3193534487280658
 30
0.0
 11
112.8989613110259995
 21
81.5382828729981384
 31
0.0
  0
LINE
  5
1D893
  8
0
  6
BYBLOCK
 62
     0
 10
98.2974016157259456
 20
66.0770098338535945
 30
0.0
 11
98.526269882291416
 21
66.31935344872808
 31
0.0
  0
LINE
  5
1D894
  8
注釈
  6
BYBLOCK
 62
     2
 10
113.1389613110259944
 20
81.5382828729981384
 30
0.0
 11
170.6722946443593116
 21
81.5382828729981384
 31
0.0
  0
TEXT
  5
1D895
  8
注釈
 62
     2
 10
208.325107285482602
 20
78.1383725861322773
 30
0.0
 40
3.0
  1
ネームプレート：アクリル板 t1.5
  7
角ゴ
  0
TEXT
  5
1D896
  8
注釈
 62
     2
 10
254.9251072854825964
 20
73.1383725861322773
 30
0.0
 40
3.0
  1
差替式
  7
角ゴ
  0
LINE
  5
1D897
  8
注釈
  6
BYBLOCK
 62
     2
 10
192.7790825234158092
 20
62.3194431618629707
 30
0.0
 11
207.1517739521499095
 21
77.5383725861321409
 31
0.0
  0
LINE
  5
1D899
  8
0
  6
BYBLOCK
 62
     0
 10
192.5502142568502961
 20
62.0770995469885065
 30
0.0
 11
192.7790825234158092
 21
62.3194431618629707
 31
0.0
  0
LINE
  5
1D89A
  8
注釈
  6
BYBLOCK
 62
     2
 10
207.3917739521498902
 20
77.5383725861321409
 30
0.0
 11
264.9251072854831932
 21
77.5383725861321409
 31
0.0
  0
LINE
  5
1D89C
  8
0
  6
BYBLOCK
 62
     0
 10
193.2296343413842123
 20
49.2618641131372215
 30
0.0
 11
193.0296343413841953
 21
49.2618641131372215
 31
0.0
  0
LINE
  5
1D89E
  8
0
  6
BYBLOCK
 62
     0
 10
191.2963010080516995
 20
49.2618641131372215
 30
0.0
 11
191.4963010080516881
 21
49.2618641131372215
 31
0.0
  0
TEXT
  5
1D89F
  8
0
 62
     2
 10
187.6296343413841896
 20
49.8868641131372286
 30
0.0
 40
2.399999999999999
  1
7
  7
角ゴ
  0
TEXT
  5
1D8A0
  8
注釈
 62
     2
 10
208.4628896049966045
 20
92.6257455905850975
 30
0.0
 40
3.0
  1
表示基板：透明アクリル t2
  7
角ゴ
  0
TEXT
  5
1D8A1
  8
注釈
 62
     2
 10
208.4628896049966045
 20
87.6257455905850975
 30
0.0
 40
3.0
  1
　　　　　　木目調UV印刷
  7
角ゴ
  0
LINE
  5
1D8A2
  8
注釈
  6
BYBLOCK
 62
     2
 10
192.5168648429300049
 20
76.8068161663151301
 30
0.0
 11
206.8895562716637926
 21
92.0257455905849469
 31
0.0
  0
LINE
  5
1D8A4
  8
0
  6
BYBLOCK
 62
     0
 10
192.2879965763644918
 20
76.5644725514406446
 30
0.0
 11
192.5168648429300049
 21
76.8068161663151301
 31
0.0
  0
LINE
  5
1D8A5
  8
注釈
  6
BYBLOCK
 62
     2
 10
207.1295562716638017
 20
92.0257455905849469
 30
0.0
 11
254.8628896049970933
 21
92.0257455905849469
 31
0.0
  0
TEXT
  5
1D8A6
  8
注釈
 62
     2
 10
208.871210476984686
 20
103.3923492635670982
 30
0.0
 40
3.0
  1
ベース：アクリルマット板 t5
  7
角ゴ
  0
LINE
  5
1D8A7
  8
注釈
  6
BYBLOCK
 62
     2
 10
193.1552452350410078
 20
88.1527896827381454
 30
0.0
 11
207.6978771436515103
 21
102.7923492635672034
 31
0.0
  0
LINE
  5
1D8A9
  8
0
  6
BYBLOCK
 62
     0
 10
192.9203271476347936
 20
87.9163058496321526
 30
0.0
 11
193.1552452350410078
 21
88.1527896827381454
 31
0.0
  0
LINE
  5
1D8AA
  8
注釈
  6
BYBLOCK
 62
     2
 10
207.937877143651491
 20
102.7923492635672034
 30
0.0
 11
258.8712104769847997
 21
102.7923492635672034
 31
0.0
  0
TEXT
  5
1D8AB
  8
注釈
 62
     2
 10
75.7546688823522061
 20
165.0919146651258984
 30
0.0
 40
3.0
  1
ベース板：アクリルマット板 t5
  7
角ゴ
  0
LINE
  5
1D8AC
  8
注釈
  6
BYBLOCK
 62
     2
 10
46.704806605852788
 20
135.5101855953824099
 30
0.0
 11
74.5813355490189451
 21
164.4919146651268989
 31
0.0
  0
LINE
  5
1D8AE
  8
0
  6
BYBLOCK
 62
     0
 10
46.4737295313024532
 20
135.2699471789532026
 30
0.0
 11
46.704806605852788
 21
135.5101855953824099
 31
0.0
  0
LINE
  5
1D8AF
  8
注釈
  6
BYBLOCK
 62
     2
 10
74.82133554901894
 20
164.4919146651268989
 30
0.0
 11
129.3546688823523141
 21
164.4919146651268989
 31
0.0
  0
TEXT
  5
1D8B0
  8
注釈
 62
     2
 10
136.2809452370736949
 20
165.0281895590391059
 30
0.0
 40
3.0
  1
表示基板：透明アクリル t2
  7
角ゴ
  0
TEXT
  5
1D8B1
  8
注釈
 62
     2
 10
136.2809452370736949
 20
160.0281895590391059
 30
0.0
 40
3.0
  1
　　　　　　木目調UV印刷
  7
角ゴ
  0
LINE
  5
1D8B2
  8
注釈
  6
BYBLOCK
 62
     2
 10
105.2818863132531959
 20
133.7607931803626116
 30
0.0
 11
134.7076119037405135
 21
164.4281895590389126
 31
0.0
  0
LINE
  5
1D8B4
  8
0
  6
BYBLOCK
 62
     0
 10
105.0511034972540045
 20
133.5202720732833939
 30
0.0
 11
105.2818863132531959
 21
133.7607931803626116
 31
0.0
  0
LINE
  5
1D8B5
  8
注釈
  6
BYBLOCK
 62
     2
 10
134.9476119037404942
 20
164.4281895590389126
 30
0.0
 11
182.6809452370737858
 21
164.4281895590389126
 31
0.0
  0
TEXT
  5
1D8B6
  8
注釈
 62
     2
 10
76.2141892090562294
 20
157.8986098015801076
 30
0.0
 40
3.0
  1
ベース：スライドロック機構
  7
角ゴ
  0
TEXT
  5
1D8B7
  8
注釈
 62
     2
 10
112.6867568288476065
 20
152.8986098015801076
 30
0.0
 40
3.0
  1
脱着式
  7
角ゴ
  0
LINE
  5
1D8B8
  8
注釈
  6
BYBLOCK
 62
     2
 10
53.9264243593805617
 20
136.1946639737863052
 30
0.0
 11
75.0408558757229684
 21
157.2986098015801986
 31
0.0
  0
LINE
  5
1D8BA
  8
0
  6
BYBLOCK
 62
     0
 10
53.6906635653878013
 20
135.9590202615277121
 30
0.0
 11
53.9264243593805617
 21
136.1946639737863052
 31
0.0
  0
LINE
  5
1D8BB
  8
注釈
  6
BYBLOCK
 62
     2
 10
75.2808558757229633
 20
157.2986098015801986
 30
0.0
 11
122.2141892090563005
 21
157.2986098015801986
 31
0.0
  0
ARC
  5
1D916
  8
0
  6
BYBLOCK
 62
     0
 10
193.429634341384201
 20
49.2618641131372215
 30
0.0
 40
0.0999999999999943
 50
180.0
 51
0.0
  0
ARC
  5
1D917
  8
0
  6
BYBLOCK
 62
     0
 10
193.429634341384201
 20
49.2618641131372215
 30
0.0
 40
0.0999999999999943
 50
0.0
 51
180.0
  0
ARC
  5
1D918
  8
0
  6
BYBLOCK
 62
     0
 10
194.4296343413847126
 20
49.2618641131372215
 30
0.0
 40
0.0999999999999943
 50
0.0
 51
180.0
  0
ARC
  5
1D919
  8
0
  6
BYBLOCK
 62
     0
 10
194.4296343413847126
 20
49.2618641131372215
 30
0.0
 40
0.0999999999999943
 50
180.0
 51
0.0
  0
ARC
  5
1D91A
  8
0
  6
BYBLOCK
 62
     0
 10
184.4296343414079047
 20
89.6077477421930837
 30
0.0
 40
0.0999999999999943
 50
270.0
 51
90.0
  0
ARC
  5
1D91B
  8
0
  6
BYBLOCK
 62
     0
 10
184.4296343414079047
 20
89.6077477421930837
 30
0.0
 40
0.0999999999999943
 50
90.0
 51
270.0
  0
ARC
  5
1D91C
  8
0
  6
BYBLOCK
 62
     0
 10
184.42963434140799
 20
56.2618641131372428
 30
0.0
 40
0.1000000000000014
 50
90.0
 51
270.0
  0
ARC
  5
1D91D
  8
0
  6
BYBLOCK
 62
     0
 10
184.42963434140799
 20
56.2618641131372428
 30
0.0
 40
0.1000000000000014
 50
270.0
 51
90.0
  0
ARC
  5
1D91E
  8
0
  6
BYBLOCK
 62
     0
 10
35.5658577086577381
 20
58.9411144088602725
 30
0.0
 40
0.1000000000000014
 50
270.0
 51
90.0
  0
ARC
  5
1D91F
  8
0
  6
BYBLOCK
 62
     0
 10
35.5658577086577381
 20
58.9411144088602725
 30
0.0
 40
0.1000000000000014
 50
90.0
 51
270.0
  0
ARC
  5
1D920
  8
0
  6
BYBLOCK
 62
     0
 10
35.5658577086577381
 20
56.2744144088602809
 30
0.0
 40
0.1000000000000014
 50
90.0
 51
270.0
  0
ARC
  5
1D921
  8
0
  6
BYBLOCK
 62
     0
 10
35.5658577086577381
 20
56.2744144088602809
 30
0.0
 40
0.1000000000000014
 50
270.0
 51
90.0
  0
ARC
  5
1D922
  8
0
  6
BYBLOCK
 62
     0
 10
42.5658577086568286
 20
49.2744144088602525
 30
0.0
 40
0.1000000000000014
 50
0.0
 51
180.0
  0
ARC
  5
1D923
  8
0
  6
BYBLOCK
 62
     0
 10
42.5658577086568286
 20
49.2744144088602525
 30
0.0
 40
0.1000000000000014
 50
180.0
 51
0.0
  0
ARC
  5
1D924
  8
0
  6
BYBLOCK
 62
     0
 10
109.2325243753238055
 20
49.2744144088602525
 30
0.0
 40
0.0999999999999943
 50
180.0
 51
0.0
  0
ARC
  5
1D925
  8
0
  6
BYBLOCK
 62
     0
 10
109.2325243753238055
 20
49.2744144088602525
 30
0.0
 40
0.0999999999999943
 50
0.0
 51
180.0
  0
ARC
  5
1D926
  8
0
  6
BYBLOCK
 62
     0
 10
35.5658910420089711
 20
72.2747810755271587
 30
0.0
 40
0.0999999999999943
 50
270.0
 51
90.0
  0
ARC
  5
1D927
  8
0
  6
BYBLOCK
 62
     0
 10
35.5658910420089711
 20
72.2747810755271587
 30
0.0
 40
0.0999999999999943
 50
90.0
 51
270.0
  0
ARC
  5
1D928
  8
0
  6
BYBLOCK
 62
     0
 10
35.5658910420089711
 20
58.9411144088602725
 30
0.0
 40
0.1000000000000014
 50
90.0
 51
270.0
  0
ARC
  5
1D929
  8
0
  6
BYBLOCK
 62
     0
 10
35.5658910420089711
 20
58.9411144088602725
 30
0.0
 40
0.1000000000000014
 50
270.0
 51
90.0
  0
ARC
  5
1D92A
  8
0
  6
BYBLOCK
 62
     0
 10
30.0658243753415597
 20
89.6077477421930837
 30
0.0
 40
0.0999999999999943
 50
270.0
 51
90.0
  0
ARC
  5
1D92B
  8
0
  6
BYBLOCK
 62
     0
 10
30.0658243753415597
 20
89.6077477421930837
 30
0.0
 40
0.0999999999999943
 50
90.0
 51
270.0
  0
ARC
  5
1D92C
  8
0
  6
BYBLOCK
 62
     0
 10
30.0658243753415597
 20
56.2744144088602809
 30
0.0
 40
0.1000000000000014
 50
90.0
 51
270.0
  0
ARC
  5
1D92D
  8
0
  6
BYBLOCK
 62
     0
 10
30.0658243753415597
 20
56.2744144088602809
 30
0.0
 40
0.1000000000000014
 50
270.0
 51
90.0
  0
ARC
  5
1D92E
  8
0
  6
BYBLOCK
 62
     0
 10
35.5658910420089711
 20
89.6077477421930837
 30
0.0
 40
0.0999999999999943
 50
270.0
 51
90.0
  0
ARC
  5
1D92F
  8
0
  6
BYBLOCK
 62
     0
 10
35.5658910420089711
 20
89.6077477421930837
 30
0.0
 40
0.0999999999999943
 50
90.0
 51
270.0
  0
ARC
  5
1D930
  8
0
  6
BYBLOCK
 62
     0
 10
35.5658910420089711
 20
72.2747810755271587
 30
0.0
 40
0.0999999999999943
 50
90.0
 51
270.0
  0
ARC
  5
1D931
  8
0
  6
BYBLOCK
 62
     0
 10
35.5658910420089711
 20
72.2747810755271587
 30
0.0
 40
0.0999999999999943
 50
270.0
 51
90.0
  0
ARC
  5
1D932
  8
0
  6
BYBLOCK
 62
     0
 10
206.1617974904210939
 20
71.2681392609983106
 30
0.0
 40
0.0999999999999943
 50
270.0
 51
90.0
  0
ARC
  5
1D933
  8
0
  6
BYBLOCK
 62
     0
 10
206.1617974904210939
 20
71.2681392609983106
 30
0.0
 40
0.0999999999999943
 50
90.0
 51
270.0
  0
ARC
  5
1D934
  8
0
  6
BYBLOCK
 62
     0
 10
206.1617974904212076
 20
56.2618641131372428
 30
0.0
 40
0.1000000000000014
 50
90.0
 51
270.0
  0
ARC
  5
1D935
  8
0
  6
BYBLOCK
 62
     0
 10
206.1617974904212076
 20
56.2618641131372428
 30
0.0
 40
0.1000000000000014
 50
270.0
 51
90.0
  0
ARC
  5
1D936
  8
0
  6
BYBLOCK
 62
     0
 10
206.1617974904212076
 20
89.6077477421930837
 30
0.0
 40
0.0999999999999943
 50
270.0
 51
90.0
  0
ARC
  5
1D937
  8
0
  6
BYBLOCK
 62
     0
 10
206.1617974904212076
 20
89.6077477421930837
 30
0.0
 40
0.0999999999999943
 50
90.0
 51
270.0
  0
ARC
  5
1D938
  8
0
  6
BYBLOCK
 62
     0
 10
206.1617974904212076
 20
71.2681392609983106
 30
0.0
 40
0.0999999999999943
 50
90.0
 51
270.0
  0
ARC
  5
1D939
  8
0
  6
BYBLOCK
 62
     0
 10
206.1617974904212076
 20
71.2681392609983106
 30
0.0
 40
0.0999999999999943
 50
270.0
 51
90.0
  0
ARC
  5
1D93A
  8
0
  6
BYBLOCK
 62
     0
 10
109.2324910419919064
 20
148.1759285941321878
 30
0.0
 40
0.0999999999999943
 50
180.0
 51
0.0
  0
ARC
  5
1D93B
  8
0
  6
BYBLOCK
 62
     0
 10
109.2324910419919064
 20
148.1759285941321878
 30
0.0
 40
0.0999999999999943
 50
0.0
 51
180.0
  0
ARC
  5
1D93C
  8
0
  6
BYBLOCK
 62
     0
 10
92.1491577086575262
 20
148.1759285941321878
 30
0.0
 40
0.0999999999999943
 50
0.0
 51
180.0
  0
ARC
  5
1D93D
  8
0
  6
BYBLOCK
 62
     0
 10
92.1491577086575262
 20
148.1759285941321878
 30
0.0
 40
0.0999999999999943
 50
180.0
 51
0.0
  0
ARC
  5
1D93E
  8
0
  6
BYBLOCK
 62
     0
 10
42.5658243753249508
 20
148.1759285941321878
 30
0.0
 40
0.1000000000000014
 50
0.0
 51
180.0
  0
ARC
  5
1D93F
  8
0
  6
BYBLOCK
 62
     0
 10
42.5658243753249508
 20
148.1759285941321878
 30
0.0
 40
0.1000000000000014
 50
180.0
 51
0.0
  0
ARC
  5
1D940
  8
0
  6
BYBLOCK
 62
     0
 10
59.6491577086575191
 20
148.1759285941321878
 30
0.0
 40
0.1000000000000014
 50
180.0
 51
0.0
  0
ARC
  5
1D941
  8
0
  6
BYBLOCK
 62
     0
 10
59.6491577086575191
 20
148.1759285941321878
 30
0.0
 40
0.1000000000000014
 50
0.0
 51
180.0
  0
ARC
  5
1D942
  8
0
  6
BYBLOCK
 62
     0
 10
59.6491577086575191
 20
148.1759285941321878
 30
0.0
 40
0.1000000000000014
 50
0.0
 51
180.0
  0
ARC
  5
1D943
  8
0
  6
BYBLOCK
 62
     0
 10
59.6491577086575191
 20
148.1759285941321878
 30
0.0
 40
0.1000000000000014
 50
180.0
 51
0.0
  0
ARC
  5
1D944
  8
0
  6
BYBLOCK
 62
     0
 10
92.1491577086575262
 20
148.1759285941321878
 30
0.0
 40
0.0999999999999943
 50
180.0
 51
0.0
  0
ARC
  5
1D945
  8
0
  6
BYBLOCK
 62
     0
 10
92.1491577086575262
 20
148.1759285941321878
 30
0.0
 40
0.0999999999999943
 50
0.0
 51
180.0
  0
ARC
  5
1D946
  8
0
  6
BYBLOCK
 62
     0
 10
109.2324910419919064
 20
126.4651440502613013
 30
0.0
 40
0.0999999999999943
 50
180.0
 51
0.0
  0
ARC
  5
1D947
  8
0
  6
BYBLOCK
 62
     0
 10
109.2324910419919064
 20
126.4651440502613013
 30
0.0
 40
0.0999999999999943
 50
0.0
 51
180.0
  0
ARC
  5
1D948
  8
0
  6
BYBLOCK
 62
     0
 10
42.5658243753249508
 20
126.4651440502613013
 30
0.0
 40
0.1000000000000014
 50
0.0
 51
180.0
  0
ARC
  5
1D949
  8
0
  6
BYBLOCK
 62
     0
 10
42.5658243753249508
 20
126.4651440502613013
 30
0.0
 40
0.1000000000000014
 50
180.0
 51
0.0
  0
ARC
  5
1D94A
  8
0
  6
BYBLOCK
 62
     0
 10
35.5658243753249295
 20
135.4651440502613013
 30
0.0
 40
0.0999999999999943
 50
270.0
 51
90.0
  0
ARC
  5
1D94B
  8
0
  6
BYBLOCK
 62
     0
 10
35.5658243753249295
 20
135.4651440502613013
 30
0.0
 40
0.0999999999999943
 50
90.0
 51
270.0
  0
ARC
  5
1D94C
  8
0
  6
BYBLOCK
 62
     0
 10
35.5658243753249295
 20
136.4651440502613013
 30
0.0
 40
0.0999999999999943
 50
90.0
 51
270.0
  0
ARC
  5
1D94D
  8
0
  6
BYBLOCK
 62
     0
 10
35.5658243753249295
 20
136.4651440502613013
 30
0.0
 40
0.0999999999999943
 50
270.0
 51
90.0
  0
ARC
  5
1D94E
  8
0
  6
BYBLOCK
 62
     0
 10
35.5658243753249295
 20
135.4651440502613013
 30
0.0
 40
0.0999999999999943
 50
270.0
 51
90.0
  0
ARC
  5
1D94F
  8
0
  6
BYBLOCK
 62
     0
 10
35.5658243753249295
 20
135.4651440502613013
 30
0.0
 40
0.0999999999999943
 50
90.0
 51
270.0
  0
ARC
  5
1D950
  8
0
  6
BYBLOCK
 62
     0
 10
35.5658243753249295
 20
133.1318107169281006
 30
0.0
 40
0.0999999999999943
 50
90.0
 51
270.0
  0
ARC
  5
1D951
  8
0
  6
BYBLOCK
 62
     0
 10
35.5658243753249295
 20
133.1318107169281006
 30
0.0
 40
0.0999999999999943
 50
270.0
 51
90.0
  0
ARC
  5
1D952
  8
0
  6
BYBLOCK
 62
     0
 10
98.879821861371866
 20
83.4305086728091965
 30
0.0
 40
0.1666666666666702
 50
46.6380533891735922
 51
226.638053389173507
  0
ARC
  5
1D953
  8
0
  6
BYBLOCK
 62
     0
 10
98.879821861371866
 20
83.4305086728091965
 30
0.0
 40
0.1666666666666702
 50
226.638053389173507
 51
46.6380533891735922
  0
ARC
  5
1D954
  8
0
  6
BYBLOCK
 62
     0
 10
98.0685333491604752
 20
65.8346662189791232
 30
0.0
 40
0.1666666666666702
 50
46.6380533891735922
 51
226.638053389173507
  0
ARC
  5
1D955
  8
0
  6
BYBLOCK
 62
     0
 10
98.0685333491604752
 20
65.8346662189791232
 30
0.0
 40
0.1666666666666702
 50
226.638053389173507
 51
46.6380533891735922
  0
ARC
  5
1D956
  8
0
  6
BYBLOCK
 62
     0
 10
192.3213459902848115
 20
61.8347559321140423
 30
0.0
 40
0.1666666666666702
 50
46.6380533891735922
 51
226.638053389173507
  0
ARC
  5
1D957
  8
0
  6
BYBLOCK
 62
     0
 10
192.3213459902848115
 20
61.8347559321140423
 30
0.0
 40
0.1666666666666702
 50
226.638053389173507
 51
46.6380533891735922
  0
ARC
  5
1D958
  8
0
  6
BYBLOCK
 62
     0
 10
193.429634341384201
 20
49.2618641131372215
 30
0.0
 40
0.0999999999999943
 50
180.0
 51
0.0
  0
ARC
  5
1D959
  8
0
  6
BYBLOCK
 62
     0
 10
193.429634341384201
 20
49.2618641131372215
 30
0.0
 40
0.0999999999999943
 50
0.0
 51
180.0
  0
ARC
  5
1D95A
  8
0
  6
BYBLOCK
 62
     0
 10
191.0963010080515971
 20
49.2618641131372215
 30
0.0
 40
0.0999999999999943
 50
0.0
 51
180.0
  0
ARC
  5
1D95B
  8
0
  6
BYBLOCK
 62
     0
 10
191.0963010080515971
 20
49.2618641131372215
 30
0.0
 40
0.0999999999999943
 50
180.0
 51
0.0
  0
ARC
  5
1D95C
  8
0
  6
BYBLOCK
 62
     0
 10
192.0591283097990924
 20
76.3221289365661733
 30
0.0
 40
0.1666666666666702
 50
46.6380533891735922
 51
226.638053389173507
  0
ARC
  5
1D95D
  8
0
  6
BYBLOCK
 62
     0
 10
192.0591283097990924
 20
76.3221289365661733
 30
0.0
 40
0.1666666666666702
 50
226.638053389173507
 51
46.6380533891735922
  0
ARC
  5
1D95E
  8
0
  6
BYBLOCK
 62
     0
 10
192.6854090602286078
 20
87.6798220165261455
 30
0.0
 40
0.166666666666671
 50
45.1903053139705619
 51
225.190305313970498
  0
ARC
  5
1D95F
  8
0
  6
BYBLOCK
 62
     0
 10
192.6854090602286078
 20
87.6798220165261455
 30
0.0
 40
0.166666666666671
 50
225.190305313970498
 51
45.1903053139705619
  0
ARC
  5
1D960
  8
0
  6
BYBLOCK
 62
     0
 10
46.2426524567521184
 20
135.029708762524109
 30
0.0
 40
0.1666666666666658
 50
46.1135643558845629
 51
226.1135643558845914
  0
ARC
  5
1D961
  8
0
  6
BYBLOCK
 62
     0
 10
46.2426524567521184
 20
135.029708762524109
 30
0.0
 40
0.1666666666666658
 50
226.1135643558845914
 51
46.1135643558845629
  0
ARC
  5
1D962
  8
0
  6
BYBLOCK
 62
     0
 10
104.8203206812548984
 20
133.2797509662042046
 30
0.0
 40
0.1666666666666601
 50
46.1837024192493715
 51
226.1837024192494141
  0
ARC
  5
1D963
  8
0
  6
BYBLOCK
 62
     0
 10
104.8203206812548984
 20
133.2797509662042046
 30
0.0
 40
0.1666666666666601
 50
226.1837024192494141
 51
46.1837024192493715
  0
ARC
  5
1D964
  8
0
  6
BYBLOCK
 62
     0
 10
53.4549027713950409
 20
135.7233765492690907
 30
0.0
 40
0.1666666666666664
 50
44.9857695694475197
 51
224.9857695694475126
  0
ARC
  5
1D965
  8
0
  6
BYBLOCK
 62
     0
 10
53.4549027713950409
 20
135.7233765492690907
 30
0.0
 40
0.1666666666666664
 50
224.9857695694475126
 51
44.9857695694475197
  0
ENDSEC
  0
EOF
